Oops, an error
Loading. Please wait.

Die To Save You tab

4,512 views 12 this week
5 commentsread comments
1 2 3 4 5
x 10
add to favorites
×
Save as Personal and add changes to this tab that will be seen only by you. Learn more ›
×
You can save this tab as Personal to edit and correct it or add notes. All changes will be seen only by you. Learn more »
launch autoscroll
font size
0
reset
how to read this tab
guitar tuner
edit
Autoscroll
slow
fast
+/-
esc
set tempo
stop
Sick Puppies
Die to Save You
Drop C Tuning

(/) Slide Up  (\) Slide Down  (h) Hammer On  (p) Pull Off  (b) Bend (r) Release (v) Vibrato

Intro (Watching live videos, this isn't exactly the way he plays this.  It sounds pretty
accurate still, just different positioning.

E|-10---10---5---5---5---5---13----12----6---6---6---6---7---7---7---7---|
B|---10---10---3---3---3---3----11----11---6---6---6---6---6---6---6---6-|
G|-----------------------------------------------------------------------|
D|-----------------------------------------------------------------------|
A|-----------------------------------------------------------------------|
E|-----------------------------------------------------------------------|



E|-10---10---5---5---5---5---13----12----6---6---6---6---12----12----12-|
B|---10---10---3---3---3---3----11----11---6---6---6---6----10----10----|
G|----------------------------------------------------------------------|
D|----------------------------------------------------------------------|
A|----------------------------------------------------------------------|
E|----------------------------------------------------------------------|


Pre-Verse 1
E|-----------------------------------------------------------------|
B|-----------------------------------------------------------------|
G|-----------------------------------------------------------------|
D|-----------------------------------------------------------------|
A|---------------------------------3-5-1-3-0---------------------0-|
E|-0-2-3-0-2-3-2-3-5-2-3-5-3-5-8-5-----------8-7-3-7-5-3-2-0-2-3---|



E|-----------------------------------------------------------------|
B|-----------------------------------------------------------------|
G|-----------------------------------------------------------------|
D|-----------------------------------------------------------------|
A|---------------------------------3-5-1-3-0---------------------0-|
E|-0-2-3-0-2-3-2-3-5-2-3-5-3-5-8-5-----------8-7-3-7-5-3-2-0-2-3---|


Verse (This is played with a harmonic live, but I prefer this.  This note is repeated a
few times.)
E|---|
B|---|
G|-7-|
D|-x-|
A|-5-|
E|---|



E|-10---10---5---5---5---5---13----12----6---6---6---6---7---7---7---7---|
B|---10---10---3---3---3---3----11----11---6---6---6---6---6---6---6---6-|
G|-----------------------------------------------------------------------|
D|-----------------------------------------------------------------------|
A|-----------------------------------------------------------------------|
E|-----------------------------------------------------------------------|



E|-10---10---5---5---5---5---13----12----6---6---6---6---12----12----|
B|---10---10---3---3---3---3----11----11---6---6---6---6----10----10-|
G|-------------------------------------------------------------------|
D|-------------------------------------------------------------------|
A|-------------------------------------------------------------------|
E|-------------------------------------------------------------------|


Pre-Chorus 1
E|---------|
B|---------|
G|---------|
D|-x-x-x-x-|
A|-x-x-x-x-|
E|-x-x-x-x-|


Chorus 1 (These chords are played multiple times, but the amount should be simple enough
to figure out just from playing along.)
E|-----------|
B|-----------|
G|-----------|
D|--5--0--7--|
A|--5--0--7--|
E|--5--0--7--|



E|-------------------------------------------------|
B|-------------------------------------------------|
G|--5/7--------7/9--------9/10--------10/12--------|
D|--x/x--0--0--x/x--0--0--x/x---0--0---x/x---0--0--|
A|--3/5--0--0--5/7--0--0--7/8---0--0---8/10--0--0--|
E|-------0--0-------0--0--------0--0---------0--0--|


(Again, first chords are repeated.)
E|-----------------------------|
B|-----------------------------|
G|-----------------------------|
D|--5--0--7--0----7--5--10--8--|
A|--5--0--7--0----7--5--10--8--|
E|--5--0--7--0----7--5--10--8--|

Repeat Pre-Verse 1 (One line.)

Repeat Verse(Ending with the below.)

E|-----------------------------|
B|-----------------------------|
G|-----------------------------|
D|------------------5--3--8--7-|
A|------------------5--3--8--7-|
E|-5-5-5-5-5-5-5-5--5--3--8--7-|

Repeat Chorus 1(Switching out the end chords with the below.)

E|--------------------------|
B|--------------------------|
G|--------------------------|
D|--5--0--7--5----7--5--7b--|
A|--5--0--7--5----7--5--7b--|
E|--5--0--7--5----7--5--7b--|

Repeat first line of Intro

Bridge (I added the beginning because I liked how it sounded.)
E|----------------------------------------------------------|
B|----------------------------------------------------------|
G|--10--9--7--------10--9--7--------10--9--7----------------|
D|----------------------------------------------7--5--7b----|
A|----------------------------------------------7--5--7b----|
E|----------------------------------------------7--5--7b----|


Chorus 3
E|-----------|
B|-----------|
G|-----------|
D|--5--0--7--|
A|--5--0--7--|
E|--5--0--7--|



E|-------------------------------------------------|
B|-------------------------------------------------|
G|--5/7--------7/9--------9/10--------10/12--------|
D|--x/x--0--0--x/x--0--0--x/x---0--0---x/x---0--0--|
A|--3/5--0--0--5/7--0--0--7/8---0--0---8/10--0--0--|
E|-------0--0-------0--0--------0--0---------0--0--|



E|---------------------------|
B|---------------------------|
G|---------------------------|
D|--5--0--7--5---7--5--7b----|
A|--5--0--7--5---7--5--7b----|
E|--5--0--7--5---7--5--7b----|


Outro
E|------------------------------------------|
B|--15--------------------------------------|
G|--17b-------------------------------------|
D|------------------------------------------|
A|------------------------------------------|
E|----------0-2-3-0-2-3-2-3-5-2-3-5-3-5-8-5-|



E|-----------------------------|
B|-----------------------------|
G|-------------------------5b--|
D|-----------------------------|
A|-3-5-1-3-0-------------------|
E|-----------8-7-3-7-5-3-0-----|



E|----------------------------------------------------------------------|
B|----------------------------------------------------------------------|
G|----------------------------------------------------------------------|
D|------------------------------------------------------------------0-0-|
A|---------------------------------3-5-1-3-0---------------------0--0-0-|
E|-0-2-3-0-2-3-2-3-5-2-3-5-3-5-8-5-----------8-7-3-7-5-3-2-0-2-3----0-0-|

            
            
Suggest correction
Creating personal tab
Creating personal tab
You can edit any tab online and save it as your Personal.

You can edit, replace or remove any tab part or add personal notes – all changes will be seen only by you.

Personal tabs can be accessed anytime from any device, even offline.
Learn more »
comments
print report bad tab
5 comments total. Showing first comments.
+1 reply
sonnysonic 10 Jul 25, 2013 05:04 AM

Amazing Tab, Perfect!

+1 reply
sonnysonic 10 Jul 25, 2013 05:10 AM

In the intro the

is incorrect, move it up by 1 fret to make it
-10
-10
Then it's correct!

0 reply
pillarocka 57 Nov 21, 2013 07:45 AM

intro is wrong, don't move it up one fret the base note is 9th fret G string

guest
You may want to rate the tab now too:
select rating
Wanna post a correction for this tab? Suggest correction