Oops, an error
Loading. Please wait.

Howards Tale bass

version 1
version 1

Whole song

Interactive

5,290 views 3 this week
3 commentsread comments
1 2 3 4 5
2 more votes to show rating
add to favorites
×
Save as Personal and add changes to this tab that will be seen only by you. Learn more ›
×
You can save this tab as Personal to edit and correct it or add notes. All changes will be seen only by you. Learn more »
launch autoscroll
font size
0
reset
guitar tuner
edit
Autoscroll
slow
fast
+/-
esc
set tempo
stop
Author
Difficulty
Pretty sure tuned down half step all strings, but full step for E string. Missing ending.

(h)- harmonic
h - hammer-on
r - rest
\ - slide down
/- slide up

Intro/ Verse (0:00)

G|---771010--771010771010--6677--66776677||
D|-00------00------------00----00--------||
A|----------------------------------------||
E|----------------------------------------||

G|---2233--22332233--0022--0022----||
D|-00----00--------00----00----3300||
A|---------------------------------||
E|---------------------------------||

Pre-Chorus A (0:43

G|-------------------------------------------------||
D|---------------------------------------------0(h)||
A|-------------------------------------------------||
E|-00r-----00r------------00r-----00r-----0h5h7----||

Chorus (0:48)

G|------------------------------------------------||
D|------------------------------------------------||
A|-111111111111-----------------------000000000000||
E|-------------00000000000555555555555------------||

G|----------------------5h7775h775--||
D|--------------------------------75||
A|-111111111111\55555555------------||
E|----------------------------------||

G|--------------------||
D|--------------------||
A|---------11r 00r----||
E|-55r-55r---------550||

Verse (1:09)

G|---771010--771010771010--6677--66776677||
D|-00------00------------00----00--------||
A|---------------------------------------||
E|---------------------------------------||

G|---2233--22332233--0022--0022----||
D|-00----00--------00----00----3300||
A|---------------------------------||
E|---------------------------------||

Pre Chorus B (1:38)

G|----||
D|----||
A|----||
E|-00-||

Chorus (1:41)

G|------------------------------------------------||
D|------------------------------------------------||
A|-111111111111-----------------------000000000000||
E|-------------00000000000555555555555------------||

G|----------------------5h7775h775--||
D|--------------------------------75||
A|-111111111111/55555555------------||
E|----------------------------------||

G|--------------------||
D|--------------------||
A|---------11r-00r----||
E|-55r-55r---------550||

Bridge Part A(2:02)- (2:23)

G|-15121512151215121412141214121412||
D|---------------------------------||
A|---------------------------------||
E|---------------------------------||

NO BASS (2:23)- (2:27)

Bridge Part B (2:27)

G|-------------------------------------||
D|-------------------------------------||
A|----------0011--00110011-------------||
E|-1\12/1-00----00--------0055770055773||

(2:34)

G|---------------------------------------------------||
D|--------------------------------------------------3||
A|---------------------------------------------0h3h5-||
E|-00--00------00--00------00--00-----00--0h3h5------||

Verse x1 (2:44)- (2:52)

G|---771010--771010771010--6677--66776677||
D|-00------00------------00----00--------||
A|----------------------------------------||
E|----------------------------------------||

G|---2233--22332233\10||
D|-00----00-----------||
A|--------------------||
E|--------------------||

Chorus (2:55)- (3:15)

G|------------------------------------------------||
D|------------------------------------------------||
A|-111111111111-----------------------000000000000||
E|-------------00000000000555555555555------------||

G|----------------------5h7775h775--||
D|--------------------------------75||
A|-111111111111/55555555------------||
E|----------------------------------||

G|--------------------||
D|--------------------||
A|---------11r 00r----||
E|-55r-55r---------550||

(3:20)- (4:12)

WILL GET ENDING SOON

            
            
Suggest correction
Creating personal tab
Creating personal tab
You can edit any tab online and save it as your Personal.

You can edit, replace or remove any tab part or add personal notes – all changes will be seen only by you.

Personal tabs can be accessed anytime from any device, even offline.
Learn more »
Give kudos to tab author, rate the tab!
1 2 3 4 5
comments
print report bad tab
3 comments total.
0 reply
dreamreever71 30 Jun 05, 2008 12:32 AM

0-0-12-12-15-15-0-0-12-12-15-15-12-12-15-15-|


|---------------------------------------------|
|---------------------------------------------|
|---------------------------------------------|
|---------------------------------------------|
|---------------------------------------------|
|-0-0-11-11-12-12-0-0-11-11-12-12-11-11-12-12-|


|---------------------------------|----------------------------------||
|---------------------------------|---------------------------------o||
|---------------------------------|----------------------------------||
|---------------------------------|----------------------------------||
|---------------------------------|---------------------------------o||
|-0-0-7-7-8-8-0-0-7-7-8-8-7-7-8-8-|-0-0-5-5-7-7-0-0-5-5-7-7-3-3-0-0--|| this is how Emma plays this.she uses warwick black label 5 string ml bass strings but only uses bead no g string and tunes ti cgcf.the rest may be right???

0 reply
dreamreever71 30 Jun 05, 2008 12:33 AM

she plays it all on the a string.

0 reply
MrCash247 103 Sep 25, 2008 11:13 PM

if you want the correct version, she follows shimon in this song, go to the howards tale tab for guitar and follow the c string for the bass

guest
You may want to rate the tab now too:
select rating
Wanna post a correction for this tab? Suggest correction