Oops, an error
Loading. Please wait.

Howards Tale bass

version 2
version 2

Whole song

Interactive

3,487 views 1 this week
3 commentsread comments
1 2 3 4 5
x 3
add to favorites
×
Save as Personal and add changes to this tab that will be seen only by you. Learn more ›
×
You can save this tab as Personal to edit and correct it or add notes. All changes will be seen only by you. Learn more »
launch autoscroll
font size
0
reset
guitar tuner
edit
Autoscroll
slow
fast
+/-
esc
set tempo
stop
Difficulty
intermediate
When I looked up the Bass Tabs to this it was incomplete.
They said they would get the ending soon, but that was since 2008, 
so they are obviosly not getting it anytime soon. So I decided to make
tab it out my self.

Warning: I'm NOT sure what the drop is, but I'm pretty sure it's
a standard drop.

Standard Drop: EADG

Things you will need to know:
R- Rest
P- Pinch or Pinch up
S- Slap
\- Slide Down

Intro (x3)
G|-------7-7-10-10--------7-7-10-10--------7-7-10-10---|
D|--0-0---------------0-0------------------------------|
A|-----------------------------------------------------|
E|-----------------------------------------------------|

G|-------6-6-7-7-------------6-6-7-7---------6-6-7-7---|
D|--0-0---------------0-0------------------------------|
A|-----------------------------------------------------|
E|-----------------------------------------------------|

G|-------2-2-3-3-------------2-2-3-3---------2-2-3-3---|
D|--0-0---------------0-0------------------------------|
A|-----------------------------------------------------|
E|-----------------------------------------------------|

G|-------0-0-2-2-----------0-0-2-2-----0-0-2-2-----------|
D|--0-0------------0-0---------------------------3-3-0-0-|
A|-------------------------------------------------------|
E|-------------------------------------------------------|

Pre-Chorus
G|-----------------------------------------------------------|
D|-----------------------------------------------------------|
A|-----------------------------------------------------------|
E|-00r-----00r------------00r-----00r------------------------|

G|-----------------0p-------------------------------|
D|--------------------------------------------------|
A|-------------------------------0s-----------------|
E|-----0s---0s--------------------------------------|

Chorus
G|------------------------------------------------|
D|------------------------------------------------|
A|------------------------------------------------|
E|--1-1-1-1-1--3-3-3-3-3---1-1-1-1-1--5-5-5-------|

((Slap this part))
G|-------------------|
D|-------------------|
A|-------------------|
E|--0-0-5-5-7-7\12---|

G|-----------------------------------------------|
D|-----------------------------------------------|
A|-----------------------------------------------|
E|-1-1-1-1-1--5-5-5---1\9-9-9-7-7--8-8---8-8-----|

G|----------------------------------------|
D|----------------------------------------|
A|----------------------------------------|
E|------------4s-4s------3s-3s-----3s-----| 

Post-Chorus
G|-------7-7-10-10--------7-7-10-10--------7-7-10-10---|
D|--0-0---------------0-0------------------------------|
A|-----------------------------------------------------|
E|-----------------------------------------------------|

G|-------6-6-7-7-------------6-6-7-7-------------6-6-7-7---|
D|--0-0---------------0-0----------------------------------|
A|---------------------------------------------------------|
E|---------------------------------------------------------|

G|-------2-2-3-3-------------2-2-3-3-------------2-2-3-3---|
D|--0-0---------------0-0----------------------------------|
A|---------------------------------------------------------|
E|---------------------------------------------------------|

G|-------0-0-2-2---------0-0-2-2-----0-0-2-2-----------------|
D|--0-0------------0-0-----------------------------3-3-0-0---|
A|-----------------------------------------------------------|
E|-----------------------------------------------------------|

Verse
G|-------7-7-10-10---------7-7-10-10--------7-7-10-10---|
D|--0-0---------------0-0-------------------------------|
A|------------------------------------------------------|
E|------------------------------------------------------|

G|-------6-6-7-7-------------6-6-7-7----------6-6-7-7---|
D|--0-0---------------0-0-------------------------------|
A|------------------------------------------------------|
E|------------------------------------------------------|

G|-------2-2-3-3-------------2-2-3-3---------2-2-3-3----|
D|--0-0---------------0-0-------------------------------|
A|------------------------------------------------------|
E|------------------------------------------------------|

G|-------0-0-2-2----------0-0-2-2---------0-0-2-2----------------|
D|--0-0-------------0-0--------------------------------3-3-0-0---|
A|---------------------------------------------------------------|
E|---------------------------------------------------------------|


G|-------7-7-10-10--------7-7-10-10--------7-7-10-10----|
D|--0-0---------------0-0-------------------------------|
A|------------------------------------------------------|
E|------------------------------------------------------|

G|-------6-6-7-7-------------6-6-7-7-------------6-6-7-7---|
D|--0-0---------------0-0----------------------------------|
A|---------------------------------------------------------|
E|---------------------------------------------------------|

G|-------2-2-3-3-------------2-2-3-3/10------------------|
D|--0-0---------------0-0--------------------------------|
A|-------------------------------------------------------|
E|-------------------------------------------------------|

Chorus(x1)
Post-Chorus(x1)

Bridge part 1 (x8)
G|---11-12-11-12-11-12-11-12-----10-11-10-11-10-11-10-11-----|
D|-----------------------------------------------------------|
A|-----------------------------------------------------------|
E|-----------------------------------------------------------| 

G|-----|
D|-----|
A|-----|
E|-5---|(x8)

Small guitar Solo ((No Bass))

Post-Solo
G|---------|
D|---------|
A|---------|
E|---1\12--|

Bridge part 1 ((Continued))
G|-------7-7-10-10--------7-7-10-10--------7-7-10-10---|
D|--0-0---------------0-0------------------------------|
A|-----------------------------------------------------|
E|-----------------------------------------------------|

G|-------6-6-7-7---------------6-6-7-7/10---------------|
D|--0-0---------------0-0-------------------------------|
A|------------------------------------------------------|
E|------------------------------------------------------|

G|--------------------------------------------------------|
D|--------------------------------------------------------|
A|--------------------------------------------------------|
E|--0s-0s--0s-0s--0s-0s--0s-0s-----0s-0s--0s-0s---0s-0s---| 

G|------------------------------0p---0s---------------------|
D|----------------0p--0s------------------------------------|
A|----------------------------------------------------------|
E|---0s--0s-------------------------------------------------| 

G|-------7-7-10-10--------7-7-10-10--------7-7-10-10---|
D|--0-0---------------0-0------------------------------|
A|-----------------------------------------------------|
E|-----------------------------------------------------|

G|-------6-6-7-7-------------6-6-7-7-------------6-6-7-7---|
D|--0-0---------------0-0----------------------------------|
A|---------------------------------------------------------|
E|---------------------------------------------------------|

G|-------2-2-3-3-------------2-2-3-3/10----------------|
D|--0-0---------------0-0------------------------------|
A|-----------------------------------------------------|
E|-----------------------------------------------------|

Chorus(x1)
Post-Chorus(x1)

Bridge Part 2
G|---------------------------------------------------------------|
D|---------------------------------------------------------------|
A|------------------3-3--3-----5-5--5----0-0-0-------1-1--1--1---|
E|---5-5-----7-7-------------------------------------------------|

G|-------------------------------------------------------------|
D|-------------------------------------------------------------|
A|-------------------------7-7--5-5--6-6--4-4--0-0--0--6-7-----|
E|---5-5-----7-7-----------------------------------------------|

G|-\10--10-10--8-8--9-9--------------------------------------|
D|-----------------------------------------------------------|
A|-----------------------------------------------------------|
E|----------------------8s-8s---8s-8s----4s-4s----3s-3s--3s--|

Re-Intro
G|-------7-7-10-10--------7-7-10-10--------7-7-10-10---|
D|--0-0---------------0-0------------------------------|
A|-----------------------------------------------------|
E|-----------------------------------------------------|

G|-------6-6-7-7-------------6-6-7-7-------------6-6-7-7---|
D|--0-0---------------0-0----------------------------------|
A|---------------------------------------------------------|
E|---------------------------------------------------------|

G|-------2-2-3-3-------------2-2-3-3-------------2-2-3-3---|
D|--0-0---------------0-0----------------------------------|
A|---------------------------------------------------------|
E|---------------------------------------------------------|

G|-------0-0-2-2-------------0-0-2-------------------------------|
D|--0-0---------------0-0---------------3-3-3-3-3-3--0-0-0-0-0---|
A|---------------------------------------------------------------|
E|---------------------------------------------------------------|

G|-------7-7-10-10--------7-7-10-10--------7-7-10-10---|
D|--0-0---------------0-0------------------------------|
A|-----------------------------------------------------|
E|-----------------------------------------------------|

G|-------6-6-7-7-------------6-6-7-7-------------------|
D|--0-0---------------0-0--------------4/8-0s-0s-0s----|
A|-----------------------------------------------------|
E|-----------------------------------------------------|

G|-------2-2-3-3-------------2-2-3-3--------------------|
D|--0-0---------------0-0-----------------4/8-0s-0s-0s--|
A|------------------------------------------------------|
E|------------------------------------------------------|

G|-------0-0-2-2-------------0-0-2-2--------------------|
D|--0-0---------------0-0------------------3-3-0-0------|
A|------------------------------------------------------|
E|------------------------------------------------------|

Outro

Intro (x3)
G|-------7-7-10-10--------7-7-10-10--------7-7-10-10---|
D|--0-0---------------0-0------------------------------|
A|-----------------------------------------------------|
E|-----------------------------------------------------|

G|-------6-6-7-7-------------6-6-7-7-------------6-6-7-7---|
D|--0-0---------------0-0----------------------------------|
A|---------------------------------------------------------|
E|---------------------------------------------------------|

G|-------2-2-3-3-------------2-2-3-3-------------2-2-3-3---|
D|--0-0---------------0-0----------------------------------|
A|---------------------------------------------------------|
E|---------------------------------------------------------|

G|-------0-0-2-2-----------0-0-2-2--------0-0-2-2----------------|
D|--0-0-------------0-0--------------------------------3-3-0-0---|
A|---------------------------------------------------------------|
E|---------------------------------------------------------------|

G|-----------------------------------------------------------|
D|-----------------------------------------------------------|
A|-----------------------------------------------------------|
E|-00r-----00r------------00r-----00r------------------------|

Tabbed by Kristen Bennington(Youtube)

            
            
Suggest correction
Creating personal tab
Creating personal tab
You can edit any tab online and save it as your Personal.

You can edit, replace or remove any tab part or add personal notes – all changes will be seen only by you.

Personal tabs can be accessed anytime from any device, even offline.
Learn more »
Give kudos to tab author, rate the tab!
1 2 3 4 5
comments
print report bad tab
3 comments total.
0 reply
Roneplaysdabass 10 Jan 08, 2011 09:52 AM

In the intro section it sounds like the third 0022 on the g-string isn't played. Also i believe this is in drop C, i could be wrong though. Otherwise it sounds great to me, good job.

0 reply
dark_rider92 20 Apr 25, 2011 07:36 PM

yeah, it's definitely either drop C or whole step down. probably drop c, as that's what a) they usually play in and b)the guitar's in drop c...
but good tab otherwise. props.

0 reply
Little Wolfling 16 Feb 26, 2012 11:05 AM

they always play in c with the exception of a few songs like "you're going down" thats why i hate tabs where they tab a DC band in DD.

guest
Wanna post a correction for this tab? Suggest correction