Oops, an error
Loading. Please wait.

Master Of The Universe bass

11,501 views 9 this week
no commentswrite comment
1 2 3 4 5
1 last vote to show rating
add to favorites
×
Save as Personal and add changes to this tab that will be seen only by you. Learn more ›
×
You can save this tab as Personal to edit and correct it or add notes. All changes will be seen only by you. Learn more »
launch autoscroll
font size
0
reset
guitar tuner
edit
Autoscroll
slow
fast
+/-
esc
set tempo
stop
-------------------------------------------------------------------------------
		      MASTER OF THE UNIVERSE - SICK PUPPIES
-------------------------------------------------------------------------------

Tabbed By : officialjlox
e-mail: officialjlox@gmail.com

Tuning: Drop C (C G C F)


underscore s= slap (thumb)
underscore p= pop (index)

**Parts of this song may require quick switching between pick and slap. Try tucking the 
in your middle finger, and popping with your index when slapping. That’s how Emma does 
**


INTRO / VERSE B

F|---------------------------------------------------------------------------|
C|---------2------------------2------2---------------------------------------|
G|---------------------------------------------------------------------------|
C|-2-2-X----2------2--2---2-X----2-------------------------------------------|
   s s s  p s      s  s   s s p  s   p


F|------------------------------------(5)------------------------------------|
C|--------2-----------(5)---------(5)----------------------------------------|
G|------------------------(5)-(5)--------------------------------------------|
C|-2-2-X----2--2-------------------------------------------------------------|
   s s s  p s  s       s   s   s   s   s

VERSE A *

F|--------9------------------9-----9-----------------------------------------|
C|---------------------------------------------------------------------------|
G|-7-7-X----7------7-7---7-X---7---------------------------------------------|
C|---------------------------------------------------------------------------|
   s s s  p s      s s   s s p s   p


F|--------9------------------------------(5)---------------------------------|
C|-----------------------(5)---------(5)-------------------------------------|
G|-7-7-X----7-7--------------(5)-(5)-----------------------------------------|
C|---------------------------------------------------------------------------|
   s s s  p s s           s   s   s   s   s

PRE CHORUS **


F|---------------------------------------------------------------------------|
C|---------------------------------------------------------------------------|
G|---------------------------------------------------------------------------|
C|--2-2-2-2-2-2-2-2--/-10-10-10-10-10-10-10-10-------------------------------|


CHORUS (pick)


F|---------------------------------------------------------------------------|
C|---------------------------------------------------------------------------|
G|---------------------------------------------------------------------------|
C|-55555555---22222222----10...---6...---------------------------------------|

BRIDGE **

F|---------------------------------------------9-9---------------------------|
C|---------------------------------------------------------------------------|
G|---------------------------444444444-----7777-7-7--------------------------|
C|-77777777-----66666666-----------------------------------------------------|

F|---------------------------------------------------------------------------|
C|---------------------------------------------------------------------------|
G|---------------------------444444444----77777777---------------------------|
C|-77777777-----66666666-----------------------------------------------------|

F|---------------------------------------------------------------------------|
C|---------------------------------------------------------------------------|
G|---------------------------------------------------------------------------|
C|-77777777-----66666666-/--18...---------2~~~~-----5~~~~---22222222---------|
                                                            ssssssss


F|---------------------------------------------------------------------------|
C|---------------------------------------------------------------------------|
G|---------------------------------------------------------------------------|
C|-55555555-----2...---10...---6...------------------------------------------|
   ssssssss     s       s      s


F|---------------------------------------------------------------------------|
C|----5----5---5-----2----2---2---------10--------10----10-------------------|
G|---------------------------------------------------------------------------|
C|-55---55---5-----22--22---2------10-10----10-10-----10---------------------|
   ss p ss p s p   ssp ssp  s p    s   s p   s s  p    s p

F|---------------------------------------------------------------------------|
C|------------------x----x---------------------------------------------------|
G|---------------------------------------------------------------------------|
C|--66666---66666-----xx---xx------------------------------------------------|
    sssss   sssss   p ss p ss


ENDING

F|---------------------------------------------------------------------------|
C|---------------------------------------------------------------------------|
G|-------------------------------2-3-----------------------------------------|
C|-2-0-0--3-2-0-2--------2-0-0-----------------------------------------------|
   S S S  S S S S        S S S   S S

F|---------------------------------------------------------------------------|
C|------------------------------2--2-----3--3--------------------------------|
G|---------------------------------------------------------------------------|
C|-2-0-0---3-2-0-2------2-0-0----22-22----33-33------------------------------|
   S S S   S S S S      S S S   PSS PSS  PSS PSS

F|---------------------------------------------------------------------------|
C|---------------------------------------------------------------------------|
G|-------------------------------2-3-----------------------------------------|
C|-2-0-0--3-2-0-2--------2-0-0-----------------------------------------------|
   S S S  S S S S        S S S   S S


F|---------------------------------------------------------------------------|
C|---------------------------------------------------------------------------|
G|-----------------2-2---------2-2------------------3------------------------|
C|-2P0-2P0-2P0-2P0-----2P0-2P0------2P0-2P0-3P0-3P0--------------------------|
   s   s   s    s  s s  s   s  s s   s   s  s   s   s


F|---------------9-9----5-5---------------9-9--5-5---------------------------|
C|---------------------------------------------------------------------------|
G|----------------7-7----3-3-2-------------7-7--3-3-2------------------------|
C|-2-0-2-0-2-------------------2-0-2-0-2-------------------------------------|
   s s s s s     psps   psps   s s s s s  psps psps

F|-9-9----5-5---9-9--5-5----9-9--5------------------------------------------|
C|--------------------------------------------------------------------------|
G|--7-7----3-3---7-7--3-3----7-7--3-----------------------------------------|
C|-----------------------------------00-5-2---------------------------------|
   psps   psps   psps psps  psps ps  ss s s

That’s it folks. Some of the slap lines are tricky so listen for the rhythms. This 
be near 100%, as I’ve compiled it based on what I hear as well as what I’ve seen Emma play 
Fun song to play with a lot of cool slap “tricks”.


The parts labeled with a ** can be either slapped or picked. The album sounds like a 
but I think she slaps these parts live


| /  slide up
| \  slide down
| h  hammer-on
| p  pull-off
| ~  vibrato
|( )  harmonic
| x  Mute note
===============================================================================

            
            
Suggest correction
Creating personal tab
Creating personal tab
You can edit any tab online and save it as your Personal.

You can edit, replace or remove any tab part or add personal notes – all changes will be seen only by you.

Personal tabs can be accessed anytime from any device, even offline.
Learn more »
Give kudos to tab author, rate the tab!
1 2 3 4 5
comments
print report bad tab
guest
Wanna post a correction for this tab? Suggest correction