Oops, an error
Loading. Please wait.

Odd One bass

version 2
version 2

Whole song

Interactive

3,493 views 12 this week
2 commentsread comments
1 2 3 4 5
x 3
add to favorites
×
Save as Personal and add changes to this tab that will be seen only by you. Learn more ›
×
You can save this tab as Personal to edit and correct it or add notes. All changes will be seen only by you. Learn more »
launch autoscroll
font size
0
reset
guitar tuner
edit
Autoscroll
slow
fast
+/-
esc
set tempo
stop
Tab by: Kyrsten=]
http://www.youtube.com/watch?v=kLXsp04Qtz8
I did somewhat different, but i watched
the video again, and found i messed up on
parts. =/
anywaysss, here's a tab, i'm pretty sure
it's atleast 99% right! =] Have Fun!

Tuning: C,G,C,F
                
  Intro(Pick)
F|-11--11-XXX-11--11-11-14-14-11--11-XXX-11--11-11-14-14-13--13-XXX-13--13--|
C|-12--12-XXX-12--12-12-12-12-12--12-XXX-12--12-12-12-12-12--12-XXX-12--12--|
G|--------------------------------------------------------------------------|
C|--------------------------------------------------------------------------|

F|-XXX-13--13-XXX-13-13-13-|
C|-XXX-12--12-XXX-12-12-12-| x2
G|-------------------------|
C|-------------------------|
     
                           "Odd One you're never alone..."   
F|-11--11-XXX-11--11-14-14-11--11-XXX-11--11-14-14-13--13-XXX-13--13--|
C|-12--12-XXX-12--12-12-12-12--12-XXX-12--12-12-12-12--12-XXX-12--12--|
G|--------------------------------------------------------------------|
C|--------------------------------------------------------------------|

F|-XXX-13--13-XXX-13-13-13-|
C|-XXX-12--12-XXX-12-12-12-| x3
G|-------------------------|
C|-------------------------|

F|-11--11-XXX-11--11-14-14-11--11-XXX-11--11-14-14-13--13-XXX-13--13--|
C|-12--12-XXX-12--12-12-12-12--12-XXX-12--12-12-12-12--12-XXX-12--12--|
G|--------------------------------------------------------------------|
C|--------------------------------------------------------------------|

F|-XXX-13-13-13-13-13-13-13-13-13-13-13-13-|
C|-XXX-12-12-12-12-12-12-12-12-12-12-12-12-|
G|-----------------------------------------|
C|-----------------------------------------|


(Slap)

"...feeling!"
F|--------------------------------------------------------------------------|
C|--------------------------------------------------------------------------|
G|--------------------------------------------------------------------------|
C|0--0-XXX-0--0-12--0--0-XXX-0--0-12--11-11-XXX-11-11-XXX-11-11-XXX-11-11-11|

F|-------------------------------------------------------------------|
C|-------------------------------------------------------------------|
G|-------------------------------------------------------------------|
C|0--0-XXX-0--0-12--0--0-XXX-0--0-12--11-11-XXX-11-11-XXX-555555555--|

Chorus
(Slap)
  "...Hey It's gonna be okay..."
F|-----------------------------------------------------------------|
C|-----------------------------------------------------------------| x2
G|-----------------------------------------------------------------|
C|-0-0-XXX-0-0-12\--7-7-XXX-7-7/-12\—5-5-XXX-5-5-XXX-5-5-XXX-5-5-5-|

(Pick)
F|-11--11-XXX-11--11-14-14-11--11-XXX-11--11-14-14-13--13-XXX-13--13--|
C|-12--12-XXX-12--12-12-12-12--12-XXX-12--12-12-12-12--12-XXX-12--12--|
G|--------------------------------------------------------------------|
C|--------------------------------------------------------------------|

F|-XXX-13--13-XXX-13-13-13-|
C|-XXX-12--12-XXX-12-12-12-| x3
G|-------------------------|
C|-------------------------|
                            

                            (Slap)
F|---------------------------------------------------|
C|---------------------------------------------------|
G|-5-4-5-7-9-4-5-4-5-7-9-4---------------------------|
C|--------------------------444444444444555555555555-|

Chorus

  "...Hey it's gonna be okay..."(Slap)
F|-----------------------------------------------------------------|
C|-----------------------------------------------------------------| x2
G|-----------------------------------------------------------------|
C|-0-0-XXX-0-0-12\--7-7-XXX-7-7/-12\—5-5-XXX-5-5-XXX-5-5-XXX-5-5-5-|

(Slap)                                                                         (x2)
F|--------------------------------------------------------------------------|
C|--------------------------------------------------------------------------|
G|--------------------------------------------------------------------------|
C|-400400400454400400400454400400400454-11-11-11-11-11-11-11-11-11-11-11-11-|

"....Hey, It's gonna be okay" 
F|----------------------------------------|
C|------------R-e-s-t---------------------|
G|------------------R-e-s-t---------------|
C|----------------------------------------|

(Slap)
F|--------------|
C|--------------|
G|--------------|
C|-555555555555-|

Chorus

F|-----------------------------------------------------------------|
C|-----------------------------------------------------------------| x2
G|-----------------------------------------------------------------|
C|-0-0-XXX-0-0-12\--7-7-XXX-7-7/-12\—5-5-XXX-5-5-XXX-5-5-XXX-5-5-5-|

"...don't let someone tell you you're no-one..."
F|-------------------------------------------------------------------|
C|-------------------------------------------------------------------| 
G|-------------12-10-9-7-7-7-7-7/----12-10-9-5-5-5-5-5/--------------|
C|-0-0-0-0-0-0-------------------------------------------------------|

F|------------------------------------------------------------|
C|------------------------------------------------------------|
G|-12-10-9-5-5-5-5-5-0-0-5-0-0-5-0-0-5-5-5----------------------------|
C|------------------------------------------------------------|

F|-------------------------------------------------------------------|
C|-------------------------------------------------------------------| 
G|-5-5-5-5-5---12-10-9-7-7-7-7-7/----12-10-9-5-5-5-5-5/--------------|
C|-------------------------------------------------------------------|

F|------------------------------------------------------------|
C|------------------------------------------------------------|
G|-12-10-9-5-0-0-5-0-0-5-0-0-5-5-5----------------------------|
C|------------------------------------------------------------|


(Slap                                   (Pick)
F|--------------------------------------------------|
C|--------------------------------------------------|
G|--------------------------------------5-4-5-7-9-4-|
C|-400400400454400400400454400400400454-------------|


  Outro (Pick)
F|-11--11-XXX-11--11-11-14-14-11--11-XXX-11--11-11-14-14-13--13-XXX-13--13--|
C|-12--12-XXX-12--12-12-12-12-12--12-XXX-12--12-12-12-12-12--12-XXX-12--12--|
G|--------------------------------------------------------------------------|
C|--------------------------------------------------------------------------|

F|-XXX-13--13-XXX-13-13-13-|
C|-XXX-12--12-XXX-12-12-12-| 
G|-------------------------|
C|-------------------------|

F|-11--11-XXX-11--11-11-14-14-11--11-XXX-11--11-11-14-14-13--13-XXX-13--13--|
C|-12--12-XXX-12--12-12-12-12-12--12-XXX-12--12-12-12-12-12--12-XXX-12--12--|
G|--------------------------------------------------------------------------|
C|--------------------------------------------------------------------------|

F|-XXX-13--13-XXX-13-13-13-11~--|
C|-XXX-12--12-XXX-12-12-12-12~--| 
G|------------------------------|
C|------------------------------|

     
| /  slide up
| \  slide down
| h  hammer-on
| p  pull-off
| ~  vibrato
| +  harmonic
| x  Mute note

            
            
Suggest correction
Creating personal tab
Creating personal tab
You can edit any tab online and save it as your Personal.

You can edit, replace or remove any tab part or add personal notes – all changes will be seen only by you.

Personal tabs can be accessed anytime from any device, even offline.
Learn more »
Give kudos to tab author, rate the tab!
1 2 3 4 5
comments
print report bad tab
2 comments total.
0 reply
Jamoney6444 10 Jun 10, 2010 08:57 PM

Did you copy the other person's tab and just change some of the parts?

0 reply
kt1251 31 Jul 22, 2010 06:20 PM

i changed the errors, big time errors..
no one says yew can't do that...
n he's wrong otherwise...
only 1 part is wrong in this tab,
but if you want to know where it is ask.

-kyrsten.xx

guest
You may want to rate the tab now too:
select rating
Wanna post a correction for this tab? Suggest correction