Oops, an error
Loading. Please wait.

Rip Tide bass

9,645 views 15 this week
no commentswrite comment
1 2 3 4 5
x 4
add to favorites
×
Save as Personal and add changes to this tab that will be seen only by you. Learn more ›
×
You can save this tab as Personal to edit and correct it or add notes. All changes will be seen only by you. Learn more »
launch autoscroll
font size
0
reset
guitar tuner
edit
Autoscroll
slow
fast
+/-
esc
set tempo
stop
Difficulty
intermediate
Tuning: EADG
    VERSE RIFF throughout song. S = SLAP or major pickage whatever you must do to get 
raspy sound.
CHORUS *These are the notes and the order I am not going to count exactly how many times
do certain  ones. Most of the chorus is just notes held out anyways.
There are NO 11's in this song all ones are 1's.
This tab is not perfect but should definitely be something you can use to play along 
the song.

VERSE

  SS  SS  SS SS SSSSS SS SS SS  SS  SS
G -------------------------------------|
D -------------------------------------|
A --------------57570-33-33------------|
E 55--55--33-33-------------11--11--33-|

 VERSE with Riff that Emma does *these sound slapped too.
G -----------------------------------------|
D -------------------------53--------------|
A --------------57570-33-33--5300----------|
E 55--55--33-33------------------11--11-33-|

CHORUS riff

G --------------------------------------|
D --------------------------------------|
A --------------------------------------|
E 8----3----1111155555---3---8---3---11-|

Small Riff in between Chorus 1 and Verse 2

G-55-332x-------------------------------|
D--------3------------------------------|
A---------------------------------------|
E---------------------------------------|

After Chorus 2 Extended riff leading into bridge

G-55-332x-------------------------------|
D--------333----------------------------|
A---------------------------------------|
E---------------------------------------|
Bridge riff (same as above but lower)
G---------------------------------------|
D---------------------------------------|
A---3--1--0-----------------------------|
E-8---------111-------------------------|


Final Bridge
G---------------------------------------|
D---------------------------------------|
A---3--1--0-----------------------------|
E-8---------111-------------------------|

            
            
Suggest correction
Creating personal tab
Creating personal tab
You can edit any tab online and save it as your Personal.

You can edit, replace or remove any tab part or add personal notes – all changes will be seen only by you.

Personal tabs can be accessed anytime from any device, even offline.
Learn more »
comments
print report bad tab
guest
Wanna post a correction for this tab? Suggest correction