Oops, an error
Loading. Please wait.

Stick To Your Guns tab

version 2
version 2

Whole song

766 views 6 this week
no commentswrite comment
1 2 3 4 5
2 more votes to show rating
add to favorites
×
Save as Personal and add changes to this tab that will be seen only by you. Learn more ›
×
You can save this tab as Personal to edit and correct it or add notes. All changes will be seen only by you. Learn more »
launch autoscroll
font size
0
reset
how to read this tab
guitar tuner
edit
Autoscroll
slow
fast
+/-
esc
set tempo
stop
Author
[Intro 1] Wah-wah pedal

it is hard to hear, but this band is playing live
D#|---------------------------------------------------------------------------|
A#|---------------------------------------------------------------------------|
F#|---------------------------------------------------------------------------|
C#|---------------------------------------------------------------------------|
G#|--------------------------------------------------4-4-4-4-4-4--------------|
C#|---5-5~-3-5-6-5-3--5-5~-3-5-6-5-3--5-5~-3-5-6-5-3--------------------------|

D#|---------------------------------------------------------------------------|
A#|---------------------------------------------------------------------------|
F#|--------------------------------------------------15-15-15-15--------------|
C#|--------------------------------------------------13-13-13-13--------------|
G#|--------------------------------------------------12-12-12-12--------------|
C#|---5-5~-3-5-6-5-3--5-5~-3-5-6-5-3--5-5~-3-5-6-5-3--------------------------|



[Intro 2 Main riff] 


D#|---------------------------------------------------------------------------|
A#|---------------------------------------------------------------------------|
F#|---------------------------------------------------------------------------|
C#|---5-5-----------5-5-----------5-5----------5-5-5-5------------------------|
G#|---5-5-----------5-5-----------5-5----------4-4-4-4------------------------|
C#|---5-5-3-5-6-5-3-5-5-3-5-6-5-3-5-5-3-5-6-5-3-------------------------------|



D#|---------------------------------------------------------------------------|
A#|---------------------------------------------------------------------------|
F#|---------------------------------------------12-12-12-12-------------------|
C#|---5-5-----------5-5-----------5-5-----------11-11-11-11-------------------|
G#|---5-5-----------5-5-----------5-5-----------10-10-10-10-------------------|
C#|---5-5-3-5-6-5-3-5-5-3-5-6-5-3-5-5-3-5-6-5-3-10-10-10-10-------------------|



[Verse 1]

The guitar comes with the second part
D#|---------------------------------|------------------------------------------|
A#|---------------------------------|------------------------------------------|
F#|---------------------------------|------------------------------------------|
C#|---------------------------------|------------------------------------------|
G#|---------------------------------|------------------------------------------|
C#|---------------------------------|------------------------------------------|

this part hard to hear
D#|---------------------------------|------------------------------------------|
A#|---------------------------------|------------------------------------------|
F#|---------------------------------|------------------------------------------|
C#|--8--10--------------------------|------------------------------------------|
G#|--8--10--------------------------|------------------------------------------|
C#|--8--10--------------------------|------------------------------------------|

D#|---------------------------------|------------------------------------------|
A#|---19~~~~~------------17~---15~--|----19~~~~~------------17~---15~----------|
F#|---------------------------------|------------------------------------------|
C#|---------------------------------|------------------------------------------|
G#|---------------------------------|------------------------------------------|
C#|---------------------------------|------------------------------------------|

D#|---------------------------------|
A#|---------------------------------|
F#|---------------------------------|
C#|--8--10--------------------------|
G#|--8--10--------------------------|
C#|--8--10--------------------------|

[Pre-Chorus]

D#|---------------------------------------------------------------------------|
A#|---------------------------------------------------------------------------|
F#|---------------------------------------------------------------------------|
C#|--5-5-----------5-5-------------5-5----------5-5-5-5-----------------------|
G#|--5-5-----------5-5-----4-------5-5-----5----4-4-4-4-----------------------|
C#|--5-5-3-5-6-5-3-5-5-3-3---3-3---5-5-3-3---3-3------------------------------|


D#|---------------------------------------------------------------------------|
A#|---------------------------------------------------------------------------|
F#|---------------------------------------------------------------------------|
C#|--5-5-----------5-5-----------5-5------------------------------------------|
G#|--5-5-----------5-5-----4-----5-5-----5--------6-6-6-6---------------------|
C#|--5-5-3-5-6-5-3-5-5-3-3---3-3-5-5-3-3---3-3----6-6-6-6---------------------|


D#|---------------------------------------------------------------------------------------------|
A#|---------------------------------------------------------------------------------------------|
F#|---------------------------------------------------------12-12-12/14-14-14/15-15-15/17-17-17-|
C#|---------------------------------------------------------x--x--x-/x--x--x-/x--x--x-/x--x--x--|
G#|-10-8-10--8-7-6/5-5-5-5-5-5\3-3-3/8-8-8--10-8-10--8-7-6--10-10-12/12-12-12/13-13-13/15-15-15-|
C#|-10-8-10--8-7-6/5-5-5-5-5-5\3-3-3/8-8-8--10-8-10--8-7-6--------------------------------------|

D#|---------------------------------------------------------------------------|
A#|---------------------------------------------------------------------------|
F#|---------------------------------------------------------------------------|
C#|---------------------------------5-5-5-5-5-5-5-5---------------------------|
G#|-1-1-1-1-3-3-3-3-0-0-0-0-1-1-1-1-4-4-4-4-4-4-4-4---------------------------|
C#|-1-1-1-1-3-3-3-3-0-0-0-0-1-1-1-1-------------------------------------------|
p.m.                                . . . . . . . . 



[Chorus 1]

D#|--------------------------------------------------------------------------------------------|
A#|--------------------------------------------------------------------------------------------|
F#|--------------------------------------------------------------------------------------------|
C#|-5\0--------5----------5---------------------------5----------5----------5------------------|
G#|-5\0--------5----------5---------------------------5----------5----------5------------------|
C#|-5\0-x-x----5/0-x-x----5/0-x-x----6-5-3-5-6-5-3-5--5/0-x-x----5/0-x-x----5/0-x-x------------|
        
   

[Verse 2]

this part hard to hear!
D#|---------------------------------|------------------------------------------|
A#|---19~~~~~------------17~---15~--|----19~~~~~------------17~---15~----------|
F#|---------------------------------|------------------------------------------|
C#|---------------------------------|------------------------------------------|
G#|---------------------------------|------------------------------------------|
C#|---------------------------------|------------------------------------------|

D#|---------------------------------|
A#|---------------------------------|
F#|---------------------------------|
C#|--8--10--------------------------|
G#|--8--10--------------------------|
C#|--8--10--------------------------|

[Pre-Chorus 2]

D#|---------------------------------------------------------------------------|
A#|---------------------------------------------------------------------------|
F#|---------------------------------------------------------------------------|
C#|--5-5-----------5-5-------------5-5----------5-5-5-5-----------------------|
G#|--5-5-----------5-5-----4-------5-5-----5----4-4-4-4-----------------------|
C#|--5-5-3-5-6-5-3-5-5-3-3---3-3---5-5-3-3---3-3------------------------------|


D#|---------------------------------------------------------------------------|
A#|---------------------------------------------------------------------------|
F#|---------------------------------------------------------------------------|
C#|--5-5-----------5-5-----------5-5------------------------------------------|
G#|--5-5-----------5-5-----4-----5-5-----5--------6-6-6-6---------------------|
C#|--5-5-3-5-6-5-3-5-5-3-3---3-3-5-5-3-3---3-3----6-6-6-6---------------------|


D#|---------------------------------------------------------------------------------------------|
A#|---------------------------------------------------------------------------------------------|
F#|---------------------------------------------------------12-12-12/14-14-14/15-15-15/17-17-17-|
C#|---------------------------------------------------------x--x--x-/x--x--x-/x--x--x-/x--x--x--|
G#|-10-8-10--8-7-6/5-5-5-5-5-5\3-3-3/8-8-8--10-8-10--8-7-6--10-10-12/12-12-12/13-13-13/15-15-15-|
C#|-10-8-10--8-7-6/5-5-5-5-5-5\3-3-3/8-8-8--10-8-10--8-7-6--------------------------------------|

D#|---------------------------------------------------------------------------|
A#|---------------------------------------------------------------------------|
F#|---------------------------------------------------------------------------|
C#|---------------------------------5-5-5-5-5-5-5-5---------------------------|
G#|-1-1-1-1-3-3-3-3-0-0-0-0-1-1-1-1-4-4-4-4-4-4-4-4---------------------------|
C#|-1-1-1-1-3-3-3-3-0-0-0-0-1-1-1-1-------------------------------------------|
p.m.                                . . . . . . . .   

[Chorus 2]

D#|--------------------------------------------------------------------------------------------|
A#|--------------------------------------------------------------------------------------------|
F#|--------------------------------------------------------------------------------------------|
C#|-5\0--------5----------5---------------------------5----------5----------5-------6-6-6-6----|
G#|-5\0--------5----------5---------------------------5----------5----------5-------6-6-6-6----|
C#|-5\0-x-x----5/0-x-x----5/0-x-x----6-5-3-5-6-5-3-5--5/0-x-x----5/0-x-x----5/0-x-x-6-6-6-6----|


D#|--------------------------------------------------------------------------------------------|
A#|--------------------------------------------------------------------------------------------|
F#|--------------------------------------------------------------------------------------------|
C#|-5\0--------5----------5---------------------------5----------5----------5-------6-6-6-5~---|
G#|-5\0--------5----------5---------------------------5----------5----------5-------6-6-6-5~---|
C#|-5\0-x-x----5/0-x-x----5/0-x-x----6-5-3-5-6-5-3-5--5/0-x-x----5/0-x-x----5/0-x-x-6-6-6-5~---|


[Solo]
this part also hard to hear!
D#|------------------------------------|--------------------------------------|
A#|--6~-----------6-8~-----------------|--10~----------11~--------------------|
F#|--x~-----------x-x~-----------------|--x~-----------x~---------------------|
C#|--3~-----------3-5~-----------------|--7~-----------8~---------------------|
G#|------------------------------------|--------------------------------------|
C#|------------------------------------|--------------------------------------|


D#|---10-10-10-10--8--8--8--8--10-10-10-10--8--8--8--8---15--15--15--15-------|
A#|---8--8--8--8--11-11-11-11--8--8--8--8--11-11-11-11--15--15--15--15--------|
F#|---------------------------------------------------------------------------|
C#|---------------------------------------------------------------------------|
G#|---------------------------------------------------------------------------|
C#|---------------------------------------------------------------------------|

D#|-----17--17--17--17--18--18--18--18--20--20--20--20\-----------------------|
A#|---15--15--15--15--15--15--15--15--15--15--15--15--------------------------|
F#|---------------------------------------------------------------------------|
C#|---------------------------------------------------------------------------|
G#|---------------------------------------------------------------------------|
C#|---------------------------------------------------------------------------|

[Chorus 3]

D#|--------------------------------------------------------------------------------------------|
A#|--------------------------------------------------------------------------------------------|
F#|--------------------------------------------------------------------------------------------|
C#|-5\0--------5----------5---------------------------5----------5----------5-------6-6-6-6----|
G#|-5\0--------5----------5---------------------------5----------5----------5-------6-6-6-6----|
C#|-5\0-x-x----5/0-x-x----5/0-x-x----6-5-3-5-6-5-3-5--5/0-x-x----5/0-x-x----5/0-x-x-6-6-6-6----|

[Chorus 2]

D#|--------------------------------------------------------------------------------------------|
A#|--------------------------------------------------------------------------------------------|
F#|--------------------------------------------------------------------------------------------|
C#|-5\0--------5----------5---------------------------5----------5----------5-------6-6-5~-----|
G#|-5\0--------5----------5---------------------------5----------5----------5-------6-6-5~-----|
C#|-5\0-x-x----5/0-x-x----5/0-x-x----6-5-3-5-6-5-3-5--5/0-x-x----5/0-x-x----5/0-x-x-6-6-5~-----|


************************************



| x   Dead note
| /   Slide up
| \   Slide down
| ~   Vibrato
| PM  Palm mute


************************************

            
            
Suggest correction
Creating personal tab
Creating personal tab
You can edit any tab online and save it as your Personal.

You can edit, replace or remove any tab part or add personal notes – all changes will be seen only by you.

Personal tabs can be accessed anytime from any device, even offline.
Learn more »
Give kudos to tab author, rate the tab!
1 2 3 4 5
comments
print report bad tab
guest
You may want to rate the tab now too:
select rating
Wanna post a correction for this tab? Suggest correction