Oops, an error
Loading. Please wait.

White Ballons chords

2,197 views 6 this week
1 commentread comment
1 2 3 4 5
3 more votes to show rating
add to favorites
×
Save as Personal and add changes to this tab that will be seen only by you. Learn more ›
×
You can save this tab as Personal to edit and correct it or add notes. All changes will be seen only by you. Learn more »
launch autoscroll
font size
0
reset
transpose
0
reset
simplify chords
display chords
guitar tuner
edit
Autoscroll
slow
fast
+/-
esc
set tempo
stop
Author
Difficulty
Strumming
There is no strumming pattern for this song yet. and get +5 IQ
----------------------------------------------------------------------------
	           WHITE BALLOONS - Sick Puppies
----------------------------------------------------------------------------

Tab: Josh Fore
e-mail: jfore1@live.com

Tuning: EADGBe

(Play the notes as shown)

-------
Intro
-------
Bass Riff:
e|-------------------------------------------------------------------------|
B|-------------------------------------------------------------------------|
G|-------------------------------------------------------------------------|
D|------------6--7--9------9--6s7--6--7--6h7h6-------------9---------------|
A|-7----7--9--------------------------------------9--7---------7-----------|
E|----------------------------------------------------------------------5--|
Guitar Rift:  [almost sounds picked, but I think it is strummed]
    B    A
E --7----5-|
A --9----7-|
D --9----7-|
G --8----6-|
B --7----5-|
e --7----5-|

--------
Verse 1
--------
B
I'm holding onto white balloons up against a sky of doom
(Bass Drops Down to A#)
Tell me you see them

A
'Cause what's inside of me is invisible to most
(Bass Drops Down to C#)
Even in clear view

B
I'm sending out a signal to the possibility of you
(Bass Drops Down to A#)
'Cause right at this moment

A
I know you're connected to a part of me
(Bass Drops to C#)
that I don't even know myself

--------
Chorus
--------
G
The changes in me

A5		          E
Are likely to be like the weather

G	         A5
Stormy and clear strength into

	   E
fear bound together

--------
Verse 2
--------
B-----(Wait for bass to drop to A#)
But I'll break my silence

A
If I believed that you and me could ever be
(Bass to C#)
More than just what's been behind us

B
I tried and left, they came and went I got rejected out again
(Bass to A#)
But no one believes me

A
I've worn a hundred faces Of the character replacements and now
Nobody sees me

G
The changes in me

    A5   		  E
Are likely to be like the weather

G		  A5
Cloudy at best...

[Power Chords from here on]
   B    G   A  Db
E -7----3---5--9---|
A -9----5---7--11--|
D -9----5---7--11--|
G -x----x---x--x---|
B -x----x---x--x---|
e -x----x---x--x---|

B
Angels lift me

A
Are you with me?

G
I'm holding onto you like
A                        B     Db
I'm holding onto white balloons

	 E
Carry me away

                      A  G
I hope that you don't break

--------
Solo
--------
        Repeat 4x
E -[------------------]------------------------------------------------|
A -[-10----10--9----9-]--10----10---12----12---14--14---15--15--14-----|
D -[----12-------12---]-----12---------12--------12-------12-----------|
G -[------------------]------------------------------------------------|
B -[------------------]------------------------------------------------|
e -[------------------]12--------------------14-------15---------------|

E ----------------------------------|
A ----------------------------------|
D ----------------------------------|
G ----------------------------------|
B -----------14h16p14-12h14p12------|
e --14h15p14------------------------|


B
Angels lift me

A
Are you with me?

G
I'm holding onto you like
A                      B   Db
I'm holding onto white balloons

E
Carry me away

                      A  G
I hope that you don't break

                      A   G
I hope that you don't break

[Back to the intro rift]


B
don't break

A
'Cause what's inside of me
is invisible to most
[instruments drop out]
Even in clear view

            
            
Suggest correction
Creating personal tab
Creating personal tab
You can edit any tab online and save it as your Personal.

You can edit, replace or remove any tab part or add personal notes – all changes will be seen only by you.

Personal tabs can be accessed anytime from any device, even offline.
Learn more »
Give kudos to tab author, rate the tab!
1 2 3 4 5
comments
print report bad tab
1 comment total.
0 reply
musiclover94 64 Dec 05, 2009 02:08 PM

[There are a few mistakes in here. For the most part it is correct, but here is the propper tab...

Tab: Josh Fore
e-mail: jfore1@live.com

Tuning: EADGBe

(Play the notes as shown)

-------
Intro
-------
Bass Riff:
e|-------------------------------------------------------------------------|
B|-------------------------------------------------------------------------|
G|-------------------------------------------------------------------------|
D|------------6--7--9------9--6s7--6--7--6h7h6-------------9---------------|
A|-7----7--9--------------------------------------9--7---------7-----------|
E|----------------------------------------------------------------------5--|

Guitar Rift: [almost sounds picked, but I think it is strummed]
Esus2 Dsus2 [Drop Chords A# C#]
E --x---------x-| ---------------x-------x-
A --7---------5-| ---------------6-------4-
D --9---------7-| ---------------9-------7-
G --9---------7-| ---------------9-------7-
B --7---------5-| ---------------x-------x-
e --7---------5-| ---------------x-------x-

--------
Verse 1
--------
Esus2
I'm holding onto white balloons up against a sky of doom
(Bass Drops Down to A#)[use the guitar drop chords]
Tell me you see them

Dsus2
'Cause what's inside of me is invisible to most
(Bass Drops Down to C#)
Even in clear view

Esus2
I'm sending out a signal to the possibility of you
(Bass Drops Down to A#)
'Cause right at this moment

Dsus2
I know you're connected to a part of me
(Bass Drops to C#)
that I don't even know myself

--------
Chorus
--------
G
The changes in me

A E
Are likely to be like the weather

G A
Stormy and clear strength into

E
fear bound together

--------
Verse 2
--------
Esus2-----(Wait for bass to drop to A#)
But I'll break my silence

Dsus2
If I believed that you and me could ever be
(Bass to C#)
More than just what's been behind us

Esus2
I tried and left, they came and went I got rejected out again
(Bass to A#)
But no one believes me

Dsus2
I've worn a hundred faces Of the character replacements and now
Nobody sees me

The changes in me

A E
Are likely to be like the weather

G Asus2
Cloudy at best...

[Power Chords from here on]
B G A Db
E -7----3---5--9---|
A -9----5---7--11--|
D -9----5---7--11--|
G -x----x---x--x---|
B -x----x---x--x---|
e -x----x---x--x---|

Angels lift me

Are you with me?

I'm holding onto you like
A B Db
I'm holding onto white balloons

Carry me away

G A
I hope that you don't break

--------
Solo
--------
[Bass Solo]
[notes on the e string are bracketed because they are the guitar solo]
Repeat 4x
E -[------------------]------------------------------------------------|
A -[-10----10--9----9-]--10----10---12----12---14--14---15--15--14-----|
D -[----12-------12---]-----12---------12--------12-------12-----------|
G -[------------------]------------------------------------------------|
B -[------------------]------------------------------------------------|
e -[------------------]-[12]----------------[14]------[15]-------------|
^ Start guitar solo here

[Guitar Solo]
E -----------------------------------------------------------|
A -----------------------------------------------------------|
D -----------------------------------------------------------|
G -----------------------------------------------------------|
B ------------------------------------14h16p14-12h14p12------|
e -12--------14-------15-----14h15p14------------------------|

Angels lift me

Are you with me?

I'm holding onto you like
A B Db
I'm holding onto white balloons

Carry me away

G A
I hope that you don't break

G A
I hope that you don't break

[Back to the intro rift]

Esus2
don't break

Dsus2
'Cause what's inside of me
is invisible to most
[instruments drop out]
Even in clear view

guest
You may want to rate the tab now too:
select rating
Wanna post a correction for this tab? Suggest correction