Oops, an error
Loading. Please wait.

Por Toda La Vida chords

version 2
version 2

Whole song

by Sie7e
52 views 1 this week
no commentswrite comment
1 2 3 4 5
2 more votes to show rating
add to favorites
×
Save as Personal and add changes to this tab that will be seen only by you. Learn more ›
×
You can save this tab as Personal to edit and correct it or add notes. All changes will be seen only by you. Learn more »
launch autoscroll
font size
0
reset
transpose
0
reset
display chords
guitar tuner
edit
Autoscroll
slow
fast
+/-
esc
set tempo
stop
About this tab version
Easy to read with simple chords. Was this info helpful? Yes No
Strumming
There is no strumming pattern for this song yet. and get +5 IQ
[Intro]
      Em                C      G               D
e -----3-------2------0---------------------------------------|
B -----0-0-------0-------0-1---0-1-3-3-3-3-1-0h1p0------------|
G -----0---0-------0--------------------------------2---------|
D -----2------------------------------------------------------|
A -----2------------------------------------------------------|
E -----0------------------------------------------------------|

      Em                C      G          D
e -----3-------2------0---------------------------------------|
B -----0-0-------0-------0-1---0-1-3-3-3-3-0------------------|
G -----0---0-------0-------------------------0----------------|
D -----2---------------------------------------4--------------|
A -----2------------------------------------------------------|
E -----0------------------------------------------------------|

[Verse 1]
                        Em                     C
Cuando se rompe un corazón se apaga una estrella
              G                    D
Dejando una huella que tiene el relój
                 Em                 C
Se rompe un corazón, se borran las letras
               G                   D
Se muere un cometa y llora hasta Dios.

C                Bm C                     D
 Por eso te lo pido, que no hagas eso conmigo...

[Chorus]
                 Em               C
...Por que yo quiero quedarme contigo
             G                 D
Por toda la vida, por toda la vida,
            Em                     C
Si vas a decirme, que quieres marcharte
               G                 D
Hoy no me lo digas, ya no me lo digas
                    Em                   C
Si se rompe un corazón, es tan cuesta arriba
             G           D
Armarlo de nuevo, de nuevo
              Em                C
Por eso yo quiero, quedarme viviendo
              G                D
Con tu compañía, con tu compañía por toda la vida.

      Em                C      G          D
e -----3-------2------0-----------------------------------------|
B -----0-0-------0-------0-1---0-1-3-3-3-3-0--------------------|
G -----0---0-------0-------------------------0------------------|
D -----2---------------------------------------4----------------|
A -----2--------------------------------------------------------|
E -----0--------------------------------------------------------|

[Verse 2]
                        Em               C
Cuando te olvidas del amor hay noches vacías
                 G               D
Que enfria un silencio ensordecedor,
                 Em                   C
Te olvidas del amor, de aquel que querias
                 G                  D
Se vuelve un recuerdo que sabe a dolor.
C               Bm  C                     D
 Por eso te lo pido, que no hagas eso conmigo...

[Chorus]
                 Em               C
...Por que yo quiero quedarme contigo
             G                 D
Por toda la vida, por toda la vida,
            Em                     C
Si vas a decirme, que quieres marcharte
               G                 D
Hoy no me lo digas, ya no me lo digas

                    Em                   C
Si se rompe un corazón, es tan cuesta arriba
             G           D
Armarlo de nuevo, de nuevo
              Em                C
Por eso yo quiero, quedarme viviendo
              G                D
Con tu compañía, con tu compañía por toda la vida.

[Verse 2]
C            Em
 No te vayas, no te alejes
C             Bm
 Este amor todo lo puede
C             Em             D
 Todavia hay mucho que escribir..

[Chorus]
                 Em               C
...Por que yo quiero quedarme contigo
             G                 D
Por toda la vida, por toda la vida,
            Em                     C
Si vas a decirme, que quieres marcharte
               G                 D
Hoy no me lo digas, ya no me lo digas

                    Em                   C
Si se rompe un corazón, es tan cuesta arriba
             G           D
Armarlo de nuevo, de nuevo
              Em                C
Por eso yo quiero, quedarme viviendo
              G                D
Con tu compañía, con tu compañía por toda la vida.

[Outro]
Em, C, G, D

            
            
Suggest correction
Creating personal tab
Creating personal tab
You can edit any tab online and save it as your Personal.

You can edit, replace or remove any tab part or add personal notes – all changes will be seen only by you.

Personal tabs can be accessed anytime from any device, even offline.
Learn more »
Give kudos to tab author, rate the tab!
1 2 3 4 5
comments
print report bad tab
guest
You may want to rate the tab now too:
select rating
Wanna post a correction for this tab? Suggest correction