Oops, an error
Loading. Please wait.

Borderline Stalker bass

217 views 1 this week
no commentswrite comment
1 2 3 4 5
1 last vote to show rating
add to favorites
×
Save as Personal and add changes to this tab that will be seen only by you. Learn more ›
×
You can save this tab as Personal to edit and correct it or add notes. All changes will be seen only by you. Learn more »
launch autoscroll
font size
0
reset
guitar tuner
edit
Autoscroll
slow
fast
+/-
esc
set tempo
stop
Author
Song: BORDERLINE STALKER
BAND: SIGNAL THE ESCAPE

website of the band: http://signaltheescape.net/

Basstab by Gustavo02
emaildogustavo02@hotmail.com

The tuning on this tab is D drop (the E string is tuned down to a D string).You can play 
main riff of octave up when using the standard tune. I don't know if the rhytm and ald 
the fills are like the original, but at least the main ideia of the song is here. Good luck.


INTRO A:

G|--------------------------------|  |--------------------------------|
D|--------------------------------|  |--------------------------------|
A|--------------------------------|  |--------------------------------|
D|2---2---2---2---2---2---2---2---|  |0---0---0---0---0---0---0---0---|

G|--------------------------------|  |--------------------------------|
D|--------------------------------|  |--------------------------------|
A|3---3---3---3---3---3---3---3---|  |--------------------------------|
D|--------------------------------|  |5---5---5---5---7.--------------|

INTRO B: x2
G|--------------------------------|  |--------------------------------|
D|--------------------------------|  |--------------------------------|
A|--------------------------------|  |--------------------------------|
D|2---0-2-0-2-2---2---0-2-0-2-0---|  |2---0-2-0-2-2---2---0-2-0-2-5---|

G|--------------------------------|  |--------------------------------|
D|--------------------------------|  |--------------------------------|
A|3---3-3-3-3-3-3-3-3-3-3-3-3-3-3-|  |5-5-5-5-5-5-5-5-5-5-5-5-3-2-----|
D|--------------------------------|  |-----------------------------0--|


VERSES A: x2

G|--------------------------------|  |--------------------------------|
D|--------------------------------|  |--------------------------------|
A|--------------------------------|  |--------------------------------|
D|2---2-2------------2-----2-2----|  |0---0-0------------0-----0-0----|

G|--------------------------------|  |--------------------------------|
D|--------------------------------|  |--------------------------------|
A|--------------------------------|  |3-3-3-3-3-3-3-3-3-3-3-3-3-5-----|
D|5---5-5-5-5-5-5-5-5-5-5-5-5-5-5-|  |--------------------------------|

VERSES B:

G|--------------------------------|  |--------------------------------|
D|--------------------------------|  |--------------------------------|
A|--------------------------------|  |--------------------------------|
D|2-------------------------------|  |0-------------------------------|

G|--------------------------------|  |--------------------------------|
D|--------------------------------|  |--------------------------------|
A|--------------------------------|  |--------------------------------|
D|5-------------------------------|  |/10-----------------------------|


CHORUS (I think):

G|--------------------------------|  |--------------------------------|
D|--------------------------------|  |--------------------------------|
A|--------------------------------|  |--------------------------------|
D|2---2---2-----0-2--2-2--2-----0-|  |0--0-0--0-----0-0--0-0--0-----0-|

G|--------------------------------|  |--------------------------------|
D|--------------------------------|  |--------------------------------|
A|3--3-3--3-----3-3--3-3--3-----3-|  |--------------------------------|
D|--------------------------------|  |5--5-5--5-----5-9--9-9--9-----0-|


G|--------------------------------|  |--------------------------------|
D|--------------------------------|  |--------------------------------|
A|--------------------------------|  |--------------------------------|
D|2--2-2--2-----0-2--2-2--2-----0-|  |0--0-0--0-----0-0--0-0--0-----0-|

G|--------------------------------|  |--------------------------------|
D|--------------------------------|  |--------------------------------|
A|3--3-3--3-----3-3--3-3--3-----3-|  |--------------------------------|
D|--------------------------------|  |5--5-5--5-----5-7--7-7--7\----0-|


POS CHORUS:

G|--------------------------------|  |--------------------------------|
D|--------------------------------|  |--------------------------------|
A|--------------------------------|  |--------------------------------|
D|2---0-2-0-2-2---2---0-2-0-2-0---|  |2---0-2-0-2-2---2---------------|


VERSES C:
(the guitar may plays E-D-C-G here, but the bass plays E-D-G-B.
You can just follow the guitar if you want, it fits more, but the EDGB of the bass give 
more dramatic feeling i think)

G|--------------------------------|  |--------------------------------|
D|--------------------------------|  |--------------------------------|
A|--------------------------------|  |--------------------------------|
D|2-2-2-2-2-2-2-2-2-2-2-2-2-2-2-2-|  |0-0-0-0-0-0-0-0-0-0-0-0-0-0-0-0-|

G|--------------------------------|  |--------------------------------|
D|--------------------------------|  |--------------------------------|
A|--------------------------------|  |2-2-2-2-2-2-2-2-2-2-2-2-2-2-2-2-|
D|5-5-5-5-5-5-5-5-5-5-5-5-5-5-5-5-|  |--------------------------------|


VERSES D:
(when he starts screaming again)

G|--------------------------------|  |--------------------------------|
D|--------------------------------|  |--------------------------------|
A|--------------------------------|  |--------------------------------|
D|2-2-2---2-2-2---2-2-2---2-2-2---|  |0-0-0---0-0-0---0-0-0---0-0-0---|

G|--------------------------------|  |--------------------------------|
D|--------------------------------|  |--------------------------------|
A|--------------------------------|  |3-3-3---3-3-3---3-3-----5-------|
D|5-5-5---5-5-5---5-5-5---5-5-5---|  |--------------------------------|

G|--------------------------------|
D|--------------------------------|
A|-------------0------------2-----|
D|0-5-4-0-4-5-----5-4-0-4-5-------|

-----------
CHORUS again
-------------

BRIDGE A:
i guess there is no bass here, but anyways the notes are

G|--------------------------------|  |--------------------------------|
D|--------------------------------|  |--------------------------------|
A|--------------------------------|  |--------------------------------|
D|2-2--2-2------------------------|  |0-0--0-0------------------------|

G|--------------------------------|  |--------------------------------|
D|--------------------------------|  |--------------------------------|
A|--------------------------------|  |--------------------------------|
D|5-5--5-5------------------------|  |0-0--0-0------------------------|

BRIDGE B:
(when the drums becomes loud)

G|--------------------------------|  |--------------------------------|
D|--------------------------------|  |--------------------------------|
A|--------------------------------|  |--------------------------------|
D|2-2--2-2------------------------|  |0-0--0-0------------------------|

G|--------------------------------|  |--------------------------------|
D|--------------------------------|  |--------------------------------|
A|--------------------------------|  |3-3--3-3----3-3-3-3-3-3-5-------|
D|5-5--5-5------------------------|  |--------------------------------|

G|--------------------------------|  |--------------------------------|
D|--------------------------------|  |--------------------------------|
A|--------------------------------|  |--------------------------------|
D|2-2--2-2------------------------|  |0-0--0-0------------------------|

G|--------------------------------|  |--------------------------------|
D|--------------------------------|  |--------------------------------|
A|--------------------------------|  |3---------3--5------------------|
D|5-5--5-5------------------------|  |--------------------------------|

BRIDGE C:

G|--------------------------------|  |--------------------------------|
D|--------------------------------|  |--------------------------------|
A|--------------------------------|  |3---3---3---5---5---5---5---5---|
D|2---2---2---0---0---0---0---0---|  |--------------------------------|

G|--------------------------------|  |--------------------------------|
D|--------------------------------|  |--------------------------------|
A|--------------------------------|  |3---3---3---3-------------------|
D|2---2---2---0---0---0---0---0---|  |----------------0---0---0-------|

G|--------------------------------|  |--------------------------------|
D|--------------------------------|  |--------------------------------|
A|--------------------------------|  |3---3---3---5---5---5---5---5---|
D|2---2---2---0---0---0---0---0---|  |--------------------------------|

G|--------------------------------|  |--------------------------------|
D|--------------------------------|  |--------------------------------|
A|--------------------------------|  |3---3---3---3---3---3---3---3---|
D|2---2---2---0---0---0---0---0---|  |--------------------------------|

G|--------------------------------|
D|--------------------------------|
A|--------------------------------|
D|0-0-0-0---0-0-0-0---5-----------|

-----------
CHORUS again
-------------

POS CHORUS B: (play 2x)

G|--------------------------------|  |--------------------------------|
D|--------------------------------|  |--------------------------------|
A|--------------------------------|  |--------------------------------|
D|2---0-2-0-2-2---2---0-2-0-2-0---|  |2---0-2-0-2-2---2---0-2-0-2-5---|

FINAL CHORUS (without drums):

G|--------------------------------|  |--------------------------------|
D|--------------------------------|  |--------------------------------|
A|--------------------------------|  |--------------------------------|
D|2-------------------------------|  |0-------------------------------|

G|--------------------------------|  |--------------------------------|
D|--------------------------------|  |--------------------------------|
A|3-------------------------------|  |--------------------------------|
D|--------------------------------|  |5---------------7---------------|

G|--------------------------------|  |--------------------------------|
D|--------------------------------|  |--------------------------------|
A|--------------------------------|  |--------------------------------|
D|2-------------------------------|  |0-------------------------------|

G|--------------------------------|  |--------------------------------|
D|--------------------------------|  |--------------------------------|
A|3-------------------------------|  |--------------------------------|
D|----------------------------5---|  |7-------------------------------|

you obessed with me like i'm obsessed with you

G|--------------------------------|
D|--------------------------------|
A|--------------------------------|
D|2-------------------------------|

            
            
Suggest correction
Creating personal tab
Creating personal tab
You can edit any tab online and save it as your Personal.

You can edit, replace or remove any tab part or add personal notes – all changes will be seen only by you.

Personal tabs can be accessed anytime from any device, even offline.
Learn more »
Give kudos to tab author, rate the tab!
1 2 3 4 5
comments
print report bad tab
guest
You may want to rate the tab now too:
select rating
Wanna post a correction for this tab? Suggest correction