Oops, an error
Loading. Please wait.

Peep Show tab

version 3
version 3

Whole song

Interactive

by SikTh
294 views 1 this week
no commentswrite comment
1 2 3 4 5
3 more votes to show rating
add to favorites
×
Save as Personal and add changes to this tab that will be seen only by you. Learn more ›
×
You can save this tab as Personal to edit and correct it or add notes. All changes will be seen only by you. Learn more »
launch autoscroll
font size
0
reset
how to read this tab
guitar tuner
edit
Autoscroll
slow
fast
+/-
esc
set tempo
stop
-----------------------------------------------------------------------------------------------
Artist - SikTh
Song   - Peep Show
Album  - The Trees Are Dead & Dried Out Wait for Something Wild
Tab by - Jakob Jugovic
-----------------------------------------------------------------------------------------------

Here is my interpretation of this SikTh's song for just one guitar, Enjoy!

Please rate if you appreciate, for this tab I've spent a lot of time, thank you. Jakob :)



legend:

pm - palm mute
p  - pull off
h  - hammer on
/  - slide up
\  - slide down
++ - natural harmonics
#  - 1/4 (tempo)
'  - 1/16 (tempo)

Tuning and tempo signs(4/16):


    1   2   3   4
    |   |   |   | 
    #   '   '   '
D#|----------------|
A#|----------------|
F#|----------------|
C#|----------------|
G#|----------------|
C#|----------------|



INTRO (4/4 + 3/4)


     #   '   '   '   #   '   '   '   #   '   '   '   #   '   '   '     

D#|-------------------------------------------------------------------|  \
A#|--5-5-5-5-5---3---3-------5-------8-----8-----8---8-------12-------|   |
F#|--x-x-x-x-x---x---x-------x-------x-----x-----x---x-------x--------|   |
C#|--2-2-2-2-2---x---x-------x-------x-----x-----x---x-------x--------|   |
G#|--0-0-0-0-0---2---2-------3-------7-----7-----7---7-------10-------|   |
C#|-------------------------------------------------------------------|   |
                                                                          |
                                                                          |
                                                                          | x 2
     #   '   '   '   #   '   '   '   #   '   '   '                        |
                                                                          |
D#|--------------------------------------10--1010--10-|                   |
A#|--10--8---7-------7-7-7-7-7-----7-----10--1010--10-|                   |
F#|--x---x---x-------x-x-x-x-x-----x------------------|                   |
C#|--x---x---x-------x-x-x-x-x-----x------------------|                   |
G#|--9---7---5-------5-5-5-5-5-----5-----9---9-9---9--|                   |
C#|----------0-------0-0-0-0-0-----0------------------|                  /



     #   '   '   '   #   '   '   '   #   '   '   '   #   '   '   '     

D#|--5-5-5-5-5---7---7-------8-------12----12----12--12------10-------|
A#|--5-5-5-5-5---8---8-------10------13----13----13--13------12-------|
F#|--x-x-x-x-x---x---x-------x-------x-----x-----x---x-------x--------|
C#|--2-2-2-2-2---x---x-------x-------x-----x-----x---x-------9--------|
G#|--0-0-0-0-0---5---5-------7-------10----10----10--10---------------|
C#|-------------------------------------------------------------------|



     #   '   '   '   #   '   '   '   #   '   '   '  

D#|--8---7---5-------5-5-5-5-5-----5-------------1012-|    |------10p0--|
A#|--10--8---7-------7-7-7-7-7-----7-----------12-----|    |----12------|
F#|--x---x---x-------x-x-x-x-x-----x---------9--------| or |--9---------|
C#|--7---5---4-------4-4-4-4-4-----4------------------|    |------------|
G#|----------x-------x-x-x-x-x-----x-----0-0----------|    |------------|
C#|----------0-------0-0-0-0-0-----0------------------|    |------------|

pm                                       . . . . 



     #   '   '   '   #   '   '   '   #   '   '   '   #   '   '   '     

D#|--0-0-0-0-0---0---0-------5-5-5-5-5-----5--------------------------|
A#|--0-0-0-0-0---0---0-------5-5-5-5-5-----5-----------------1-1-1-1--|
F#|--5-5-5-5-5---5---5-------X-X-X-X-X-----X-----------------2-2-2-2--|
C#|--7-7-7-7-7---7---7-------7-7-7-7-7-----7-----------------0-0-0-0--|
G#|--0-0-0-0-0---0---0---------------------------------------0-0-0-0--|
C#|----------------------------------------------5\----------0-0-0-0--|



     #   '   '   '   #   '   '   '   #   '   '   ' 

D#|---------------------------------------------------|
A#|--1---1---1-------1-1-1-1---1-1-1------------------|
F#|--2---2---2-------2-2-2-2---2-0-0------------------|
C#|--0---0---0-------3-3-3-3---3-3-3------------------|
G#|--0---0---0-------3-3-3-3---3-2-2------------------|
C#|--0---0---0-------------------0-0------------------|



VERSE 1 (4/4 + 3/4 and 4/4 + 2/4)



     #   '   '   '   #   '   '   '   #   '   '   '   #   '   '   '     

D#|------------------0---------------------0-----------------0--------|
A#|--------------0-----------0-------------------0---------------0----|
F#|----------5-----------------------5--------------------------------|
C#|------7------------------------------------------------------------|
G#|--0----------------------------------------------------------------|
C#|-------------------------------------------------------------------|



     #   '   '   '   #   '   '   '   #   '   '   '   

D#|------------------0--------------------------------|
A#|--------------6---------6--------------------------|
F#|------------------------------0--------------------|
C#|----------7----------------------------------------|
G#|------8--------------------------------------------|
C#|---------------------------------------------------|



     #   '   '   '   #   '   '   '   #   '   '   '   #   '   '   '

D#|------------------0---------------------0-----------------0--------|
A#|--------------0-----------0-------------------0--------------------|
F#|----------5-----------------------5--------------------------------|
C#|------7------------------------------------------------------------|
G#|--0----------------------------------------------------------------|
C#|-------------------------------------------------------------------|



     #   '   '   '   #   '   '   '

D#|------------------0---------------|
A#|--------------6-------6-----------|
F#|----------------------------------|
C#|----------7-----------------------|
G#|------8-------------------8---7---|
C#|----------------------------------|



     #   '   '   '   #   '   '   '   #   '   '   '   #   '   '   '     

D#|------------------0---------------------0-----------------0--------|
A#|--------------0-----------0-------------------0---------------0----|
F#|----------5-----------------------5--------------------------------|
C#|------7------------------------------------------------------------|
G#|--0----------------------------------------------------------------|
C#|-------------------------------------------------------------------|



     #   '   '   '   #   '   '   '   #   '   '   '   

D#|------------------0--------------------------------|
A#|--------------6---------6--------------------------|
F#|------------------------------0--------------------|
C#|----------7----------------------------------------|
G#|------8--------------------------------------------|
C#|---------------------------------------------------|



     #   '   '   '   #   '   '   '   #   '   '   '   #   '   '   '

D#|------------------0---------------------0-----------------0--------|
A#|--------------0-----------0-------------------0--------------------|
F#|----------5-----------------------5--------------------------------|
C#|------7------------------------------------------------------------|
G#|--0----------------------------------------------------------------|
C#|-------------------------------------------------------------------|



     #   '   '   '   #   '   '   '   #   '   '   '

D#|------------------0--------------------------------|
A#|--------------6---------6--------------------------|
F#|---------------------------------------------------|
C#|----------7----------------------------------------|
G#|------8--------------------------------------------|
C#|------------------------------5-\------------------|



CHORUS (7/4)


     #   '   '   '   #   '   '   '   #   '   '   '   #   '   '   '     

D#|--------------3---3------------------------------------------------|  \
A#|--5-5-5-5-5---5---5---------------5-----5-----5--------------------|   |
F#|--2-2-2-2-2---2---2-------5-5-5-5-5-----5-----5-----------5-5-5-5--|   |
C#|--2-2-2-2-2---2---2-------5-5-5-5-5-----5-----5-----------3-3-3-3--|   |
G#|--0-0-0-0-0---0---0-------3-3-3-3-3-----3-----3-----------3-3-3-3--|   |
C#|----------------------------------------------------------3-3-3-3--|   |
                                                                          |
                                                                          |
                                                                          | x 3
     #   '   '   '   #   '   '   '   #   '   '   '                        |
                                                                          |
D#|---------------------------------------------------|                   |
A#|--3---3---3---------------------------0---0-0---0--|                   |
F#|--5---5---5-------5-5-5-5-5-----5-----0---0-0---0--|                   |
C#|--3---3---3-------0-0-0-0-0-----0------------------|                   |
G#|--3---3---3-------0-0-0-0-0-----0------------------|                   |
C#|--3---3---3-------0-0-0-0-0-----0------------------|                  /



     #   '   '   '   #   '   '   '   #   '   '   '   #   '   '   '     

D#|--------------3---3------------------------------------------------|
A#|--5-5-5-5-5---5---5---------------5-----5-----5--------------------|
F#|--2-2-2-2-2---2---2-------5-5-5-5-5-----5-----5-----------5-5-5-5--|
C#|--2-2-2-2-2---2---2-------5-5-5-5-5-----5-----5-----------3-3-3-3--|
G#|--0-0-0-0-0---0---0-------3-3-3-3-3-----3-----3-----------3-3-3-3--|
C#|----------------------------------------------------------3-3-3-3--|



     #   '   '   '   #   '   '   '   #   '   '   '

D#|----------------------------------------------10p7-|    |------3p0------|
A#|--3---3---3-------0-----0-----0-----------8--------|    |----1-----3p0--|
F#|--5---5---5-------5-----5-----5------------h9------| or |--2------------|
C#|--3---3---3-------0-----0-----0-------7h10---------|    |---------------|
G#|--3---3---3-------0-----0-----0--------------------|    |---------------|
C#|--3---3---3-------0-----0-----0--------------------|    |---------------|

pm                                       . .                  . .



INTRO RIFF (4/4 + 3/4 and 2/4)


     #   '   '   '   #   '   '   '   #   '   '   '   #   '   '   '     

D#|-------------------------------------------------------------------|  \
A#|--5-5-5-5-5---3---3-------5-------8-----8-----8---8-------12-------|   |
F#|--x-x-x-x-x---x---x-------x-------x-----x-----x---x-------x--------|   |
C#|--2-2-2-2-2---x---x-------x-------x-----x-----x---x-------x--------|   |
G#|--0-0-0-0-0---2---2-------3-------7-----7-----7---7-------10-------|   |
C#|-------------------------------------------------------------------|   |
                                                                          |
                                                                          |
                                                                          | x 2
     #   '   '   '   #   '   '   '   #   '   '   '                        |
                                                                          |
D#|--------------------------------------10--1010--10-|                   |
A#|--10--8---7-------7-7-7-7-7-----7-----10--1010--10-|                   |
F#|--x---x---x-------x-x-x-x-x-----x------------------|                   |
C#|--x---x---x-------x-x-x-x-x-----x------------------|                   |
G#|--9---7---5-------5-5-5-5-5-----5-----9---9-9---9--|                   |
C#|----------0-------0-0-0-0-0-----0------------------|                  /



     #   '   '   '   #   '   '   '   #   '   '   '   #   '   '   '     

D#|--5-5-5-5-5---7---7-------8-------12----12----12--12------10-------|
A#|--5-5-5-5-5---8---8-------10------13----13----13--13------12-------|
F#|--x-x-x-x-x---x---x-------x-------x-----x-----x---x-------x--------|
C#|--2-2-2-2-2---x---x-------x-------x-----x-----x---x-------9--------|
G#|--0-0-0-0-0---5---5-------7-------10----10----10--10---------------|
C#|-------------------------------------------------------------------|



     #   '   '   '   #   '   '   '   #   '   '   '  

D#|--8---7---5-------5-5-5-5-5-----5-------------1012-|    |------10p0--|
A#|--10--8---7-------7-7-7-7-7-----7-----------12-----|    |----12------|
F#|--x---x---x-------x-x-x-x-x-----x---------9--------| or |--9---------|
C#|--7---5---4-------4-4-4-4-4-----4------------------|    |------------|
G#|----------x-------x-x-x-x-x-----x-----0-0----------|    |------------|
C#|----------0-------0-0-0-0-0-----0------------------|    |------------|

pm                                       . . . . 



     #   '   '   '   #   '   '   '   #   '   '   '   #   '   '   '     

D#|--0-0-0-0-0---0---0-------5-5-5-5-5-----5-------------0-5-8-7-5----|
A#|--0-0-0-0-0---0---0-------5-5-5-5-5-----5-----------------------8--|
F#|--5-5-5-5-5---5---5-------X-X-X-X-X-----X--------------------------|
C#|--7-7-7-7-7---7---7-------7-7-7-7-7-----7--------------------------|
G#|--0-0-0-0-0---0---0------------------------------------------------|
C#|----------------------------------------------5--------------------|



     #   '   '   '   #   '   '   '

D#|------------------0---------------|
A#|--------------6---------6---------|
F#|--5-p-0-----------------------0---|
C#|----------7-----------------------|
G#|----------------------------------|
C#|----------------------------------|



VERSE 2 (4/4 + 3/4 and 4/4 + 2/4)



     #   '   '   '   #   '   '   '   #   '   '   '   #   '   '   '     

D#|------------------0---------------------0-----------------0--------|
A#|--------------0-----------0-------------------0--------------------|
F#|----------5-----------------------5---------------------------5----|
C#|------7------------------------------------------------------------|
G#|--0----------------------------------------------------------------|
C#|-------------------------------------------------------------------|



     #   '   '   '   #   '   '   '   #   '   '   '   

D#|------------------0--------------------------------|
A#|--------------6---------6--------------------------|
F#|------------------------------0--------------------|
C#|----------7-----------------------0----------------|
G#|------8--------------------------------------------|
C#|---------------------------------------------------|



     #   '   '   '   #   '   '   '   #   '   '   '   #   '   '   '     

D#|------------------0---------------------0-----------------0--------|
A#|--------------0-----------0-------------------0--------------------|
F#|----------5-----------------------5---------------------------5----|
C#|------7------------------------------------------------------------|
G#|--0----------------------------------------------------------------|
C#|-------------------------------------------------------------------|



BRIDGE pt1


     #   '   '   '   #   '   '   '   #   '   '   '   #   '   '   '     

D#|-------------------------------------------------------------------|
A#|------------------10------------------------------------------10---|
F#|----------9-/-10------10--9-----------------------9---10--12-------|
C#|------7-----------------------8-------9---10--12-------------------|
G#|--8-------------------------------10-------------------------------|
C#|-------------------------------------------------------------------|

pm   .   .



BRIDGE pt2


     #   '   '   '   #   '   '   '   #   '   '   '   #   '   '   '     

D#|-------------------------------------------------------------------|
A#|-------------------------------------------------------------------|
F#|--5-----5-----5--/--9-----9-------7-----7-----7--\--2-----2--------|
C#|--7-----7-----7--/--10----10------9-----9-----9--\--3-----3--------|
G#|-------------------------------------------------------------------|
C#|-------------------------------------------------------------------|



     #   '   '   '   #   '   '   '   #   '   '   '   #   '   '   '     

D#|-------------------------------------------------------------------|
A#|-------------------------------------------------------------------|
F#|--5-----5-----5--/--9-----9---\---5-----5-----5--/--7-----7--------|
C#|--7-----7-----7--/--10----10--\---7-----7-----7--/--9-----9--------|
G#|-------------------------------------------------------------------|
C#|-------------------------------------------------------------------|



BRIDGE pt3


     #   '   '   '   #   '   '   '   #   '   '   '   #   '   '   '     

D#|-------------------------------------------------------------------|
A#|--5-----5-----5-----3-----3-------5-----5-----5-----8-----8--------|
F#|--x-----x-----x-----x-----x-------x-----x-----x-----x-----x--------|
C#|--2-----2-----2-----x-----x-------x-----x-----x-----x-----x--------|
G#|--0-----0-----0-----2-----2-------3-----3-----3-----7-----7--------|
C#|-------------------------------------------------------------------|



     #   '   '   '   #   '   '   '   #   '   '   '   #   '   '   '     

D#|-------------------------------------------------------------------|
A#|--7-----7-----7-----10----10------12----12----12----12----12-------|
F#|--x-----x-----x-----x-----x-------x-----x-----x-----x-----x--------|
C#|--x-----x-----x-----x-----x-------x-----x-----x-----x-----x--------|
G#|--5-----5-----5-----9-----9-------10----10----10----11----11-------|
C#|--0-----0-----0----------------------------------------------------|



     #   '   '   '   #   '   '   '   #   '   '   '   #   '   '   '     

D#|--12----12----12----8-----8-------10----10----10----7-----7--------|
A#|--13----13----13----10----10------12----12----12----8-----8--------|
F#|-------------------------------------------------------------------|
C#|-------------------------------------------------------------------|
G#|-------------------------------------------------------------------|
C#|-------------------------------------------------------------------|



     #   '   '   '   #   '   '   '   #   '   '   '   #   '   '   '     

D#|--12----12----12----15----15------7-----7-----7-----12----12-\-----|
A#|--13----13----13----17----17------8-----8-----8-----12----12-\-----|
F#|----------------------------------------------------12----12-\-----|
C#|-------------------------------------------------------------------|
G#|-------------------------------------------------------------------|
C#|-------------------------------------------------------------------|



D#|-------------------------------------------------------------------|
A#|--5-----5-----5-----3-----3-------5-----5-----5-----8-----8--------|
F#|--x-----x-----x-----x-----x-------x-----x-----x-----x-----x--------|
C#|--2-----2-----2-----x-----x-------x-----x-----x-----x-----x--------|
G#|--0-----0-----0-----2-----2-------3-----3-----3-----7-----7--------|
C#|-------------------------------------------------------------------|



     #   '   '   '   #   '   '   '   #   '   '   '   #   '   '   '     

D#|-------------------------------------------------------------------|
A#|--7-----7-----7-----7-----7-------12----12----12----12----12-------|
F#|--x-----x-----x-----x-----x-------x-----x-----x-----x-----x--------|
C#|--x-----x-----x-----x-----x-------x-----x-----x-----x-----x--------|
G#|--5-----5-----5-----5-----5-------10----10----10----11----11-------|
C#|--0-----0-----0-----0-----0----------------------------------------|



     #   '   '   '   #   '   '   '   #   '   '   '   #   '   '   '     

D#|-------------------------------------------------------------------|
A#|--7-----7-----7-----7-----7-------12----12----12----12----12-------|
F#|--x-----x-----x-----x-----x-------x-----x-----x-----x-----x--------|
C#|--x-----x-----x-----x-----x-------x-----x-----x-----x-----x--------|
G#|--5-----5-----5-----5-----5-------10----10----10----11----11-------|
C#|-------------------------------------------------------------------|



     #   '   '   '   #   '   '   '   #   '   '   '   #   '   '   '     

D#|-------------------------------------------------------------------|
A#|--13----13----13----17----17------10----10----10--8-------7--------|
F#|--x-----x-----x-----x-----x-------x-----x-----x---x-------x--------|
C#|--x-----x-----x-----x-----x-------x-----x-----x---x-------x--------|
G#|--12----12----12----15----15------9-----9-----9---7-------5--------|
C#|-------------------------------------------------------------------|



     #   '   '   '   #   '   '   '   #   '   '   '   #   '   '   '     

D#|-------------------------------------------------------------------|
A#|-------------------------------------------------------------------|
F#|-------------------------------------------------------------------|
C#|-------------------------------------------------------------------|
G#|-------------------------------------------------------------------|
C#|-------------------------------------------------------------------|


  
BRIDGE pt.4 (follow the tempo)


D#|--------|--------|--------|--------|--------|----------------------|
A#|--+12+--|--------|--+12+--|--------|--------|----------------+12+--|
F#|--------|--------|--------|--------|--------|--------+12+----------|
C#|--------|--------|--------|--------|--------|----------------------|
G#|--------|--+7+---|--------|--+7+---|-(+7+)--|-------------+5+------|
C#|--------|--------|--------|--------|--------|--+4+-----------------|



VERSE 3


     #   '   '   '   #   '   '   '   #   '   '   '   #   '   '   '     

D#|-(0)-----------------------------(0)----1-----------------0--------|
A#|-(1)--0---1---3---0--------------(1)----------0--------------------|
F#|-(2)-----------------------------(0)--------------3----------------|
C#|-------------------------------------------------------------------|
G#|-------------------------------------------------------------------|
C#|-------------------------------------------------------------------|



     #   '   '   '   #   '   '   '   #   '   '   '    

D#|-(3)----------0------------------------------------|
A#|-(1)--------------1-------------------0------------|
F#|-(0)------2-------------------------------2--------|
C#|------3---------------------------0----------------|
G#|------------------------------0--------------------|
C#|---------------------------------------------------|



     #   '   '   '   #   '   '   '   #   '   '   '   #   '   '   '     

D#|-(0)-----------------------------(0)----3-----1---0---1---0--------|
A#|-(1)--0---1---3---0--------------(1)-------------------------------|
F#|-(2)-----------------------------(0)-------------------------------|
C#|-------------------------------------------------------------------|
G#|-------------------------------------------------------------------|
C#|-------------------------------------------------------------------|



     #   '   '   '   #   '   '   '

D#|-(1)----------1---0---1---0-------|
A#|-(1)------------------------------|
F#|-(2)------------------------------|
C#|------2---3-----------------------|
G#|----------------------------------|
C#|----------------------------------|



     #   '   '   '   #   '   '   '   #   '   '   '   #   '   '   '     

D#|---------------------------------(12)---1-----0--------------------| (vibrato)
A#|-(0)--0---1---3---0--------------(13)------------------------------|
F#|-(2)-----------------------------(12)------------------------------|
C#|-(2)---------------------------------------------------------------|
G#|-------------------------------------------------------------------|
C#|-------------------------------------------------------------------|



     #   '   '   '   #   '   '   '

D#|------------------0---------------|
A#|--------------6---------6---------|
F#|------------------------------0---|
C#|----------7-----------------------|
G#|------8---------------------------|
C#|----------------------------------|



PRE-CHORUS


     #   '   '   '   #   '   '   '   #   '   '   '   #   '   '   '     

D#|------------------0------------------------------------------------|
A#|--------------0-----------0-------------------0--------------------|
F#|----------5-------------------5---------9-----------------9--------|
C#|------7-------------------------7/10--------------------------10---|
G#|--0----------------------------------------------------------------|
C#|-------------------------------------------------------------------|



     #   '   '   '   #   '   '   '   #   '   '   '   #   '   '   '     

D#|-------------------------------------------------------------------|
A#|------------------10------------------------------------------10---|
F#|----------9-/-10------10--9-----------------------9---10--12-------|
C#|------7-----------------------8-------9---10--12-------------------|
G#|--8-------------------------------10-------------------------------|
C#|-------------------------------------------------------------------|

pm   .   .



CHORUS (7/4)


     #   '   '   '   #   '   '   '   #   '   '   '   #   '   '   '     

D#|--------------3---3------------------------------------------------|  \
A#|--5-5-5-5-5---5---5---------------5-----5-----5--------------------|   |
F#|--2-2-2-2-2---2---2-------5-5-5-5-5-----5-----5-----------5-5-5-5--|   |
C#|--2-2-2-2-2---2---2-------5-5-5-5-5-----5-----5-----------3-3-3-3--|   |
G#|--0-0-0-0-0---0---0-------3-3-3-3-3-----3-----3-----------3-3-3-3--|   |
C#|----------------------------------------------------------3-3-3-3--|   |
                                                                          |
                                                                          |
                                                                          | x 3
     #   '   '   '   #   '   '   '   #   '   '   '                        |
                                                                          |
D#|---------------------------------------------------|                   |
A#|--3---3---3---------------------------0---0-0---0--|                   |
F#|--5---5---5-------5-5-5-5-5-----5-----0---0-0---0--|                   |
C#|--3---3---3-------0-0-0-0-0-----0------------------|                   |
G#|--3---3---3-------0-0-0-0-0-----0------------------|                   |
C#|--3---3---3-------0-0-0-0-0-----0------------------|                  /



     #   '   '   '   #   '   '   '   #   '   '   '   #   '   '   '     

D#|--------------3---3------------------------------------------------|
A#|--5-5-5-5-5---5---5---------------5-----5-----5--------------------|
F#|--2-2-2-2-2---2---2-------5-5-5-5-5-----5-----5-----------5-5-5-5--|
C#|--2-2-2-2-2---2---2-------5-5-5-5-5-----5-----5-----------3-3-3-3--|
G#|--0-0-0-0-0---0---0-------3-3-3-3-3-----3-----3-----------3-3-3-3--|
C#|----------------------------------------------------------3-3-3-3--|



     #   '   '   '   #   '   '   '   #   '   '   '

D#|---------------------------------------------------|
A#|--3---3---3-------0-----0-----0--------------------|
F#|--5---5---5-------5-----5-----5--------------------|
C#|--3---3---3-------0-----0-----0--------------------|
G#|--3---3---3-------0-----0-----0--------------------|
C#|--3---3---3-------0-----0-----0--------------------|



INTRO RIFF (4/4 + 3/4 and 2/4)


     #   '   '   '   #   '   '   '   #   '   '   '   #   '   '   '     

D#|-------------------------------------------------------------------|  \
A#|--5-5-5-5-5---3---3-------5-------8-----8-----8---8-------12-------|   |
F#|--x-x-x-x-x---x---x-------x-------x-----x-----x---x-------x--------|   |
C#|--2-2-2-2-2---x---x-------x-------x-----x-----x---x-------x--------|   |
G#|--0-0-0-0-0---2---2-------3-------7-----7-----7---7-------10-------|   |
C#|-------------------------------------------------------------------|   |
                                                                          |
                                                                          |
                                                                          | x 2
     #   '   '   '   #   '   '   '   #   '   '   '                        |
                                                                          |
D#|--------------------------------------10--1010--10-|                   |
A#|--10--8---7-------7-7-7-7-7-----7-----10--1010--10-|                   |
F#|--x---x---x-------x-x-x-x-x-----x------------------|                   |
C#|--x---x---x-------x-x-x-x-x-----x------------------|                   |
G#|--9---7---5-------5-5-5-5-5-----5-----9---9-9---9--|                   |
C#|----------0-------0-0-0-0-0-----0------------------|                  /



     #   '   '   '   #   '   '   '   #   '   '   '   #   '   '   '     

D#|--5-5-5-5-5---7---7-------8-------12----12----12--12------10-------|
A#|--5-5-5-5-5---8---8-------10------13----13----13--13------12-------|
F#|--x-x-x-x-x---x---x-------x-------x-----x-----x---x-------x--------|
C#|--2-2-2-2-2---x---x-------x-------x-----x-----x---x-------9--------|
G#|--0-0-0-0-0---5---5-------7-------10----10----10--10---------------|
C#|-------------------------------------------------------------------|



     #   '   '   '   #   '   '   '   #   '   '   '  

D#|--8---7---5-------5-5-5-5-5-----5-------------1012-|    |------10p0--|
A#|--10--8---7-------7-7-7-7-7-----7-----------12-----|    |----12------|
F#|--x---x---x-------x-x-x-x-x-----x---------9--------| or |--9---------|
C#|--7---5---4-------4-4-4-4-4-----4------------------|    |------------|
G#|----------x-------x-x-x-x-x-----x-----0-0----------|    |------------|
C#|----------0-------0-0-0-0-0-----0------------------|    |------------|

pm                                       . . . . 



     #   '   '   '   #   '   '   '   #   '   '   '   #   '   '   '     

D#|--0-0-0-0-0---0---0-------5-5-5-5-5-----5-------------0-5-8-7-5----|
A#|--0-0-0-0-0---0---0-------5-5-5-5-5-----5-----------------------8--|
F#|--5-5-5-5-5---5---5-------X-X-X-X-X-----X--------------------------|
C#|--7-7-7-7-7---7---7-------7-7-7-7-7-----7--------------------------|
G#|--0-0-0-0-0---0---0------------------------------------------------|
C#|----------------------------------------------5--------------------|



     #   '   '   '   #   '   '   '

D#|------------------0---------------|
A#|--------------6---------6---------|
F#|--5-p-0---------------------------|
C#|----------7-----------------------|
G#|----------------------------------|
C#|------------------------------5\--|




            
            
Suggest correction
Creating personal tab
Creating personal tab
You can edit any tab online and save it as your Personal.

You can edit, replace or remove any tab part or add personal notes – all changes will be seen only by you.

Personal tabs can be accessed anytime from any device, even offline.
Learn more »
Give kudos to tab author, rate the tab!
1 2 3 4 5
comments
print report bad tab
guest
You may want to rate the tab now too:
select rating
Wanna post a correction for this tab? Suggest correction