Oops, an error
Loading. Please wait.

Pussyfoot tab

version 2
version 2

Whole song

Interactive

by SikTh
280 views 12 this week
no commentswrite comment
1 2 3 4 5
1 last vote to show rating
add to favorites
×
Save as Personal and add changes to this tab that will be seen only by you. Learn more ›
×
You can save this tab as Personal to edit and correct it or add notes. All changes will be seen only by you. Learn more »
launch autoscroll
font size
0
reset
how to read this tab
guitar tuner
edit
Autoscroll
slow
fast
+/-
esc
set tempo
stop
-----------------------------------------------------------------------------------------------
Artist - SikTh
Song   - Pussyfoot
Album  - The Trees Are Dead & Dried Out Wait for Something Wild
Tab by - Jakob Jugovic
-----------------------------------------------------------------------------------------------

Here is my interpretation of this SikTh's song for just one guitar, Enjoy!

Please rate if you appreciate, thank you. Jakob



legend:

pm - palm mute
h  - hammer on
/  - slide up
\  - slide down
b  - bend
() - natural harmonics
#  - 1/4 (tempo)
'  - 1/16 (tempo)

Tuning and tempo signs(4/16):


    1   2   3   4
    |   |   |   | 
    #   '   '   '
D#|----------------|
A#|----------------|
F#|----------------|
C#|----------------|
G#|----------------|
C#|----------------|





INTRO


       #   '   '   '   #   '   '   '   #   '   '   '   #   '   '   '
D#|---------------------------------------------------------------------|
A#|---------------------------------------------------------------------|
F#|--9-9-------------9-9-------------9-9-------------9-9----------------|
C#|--8-8-------------8-8-------------8-8-------------8-8----------------|
G#|--7-7-------------7-7-------------7-7-------------7-7----------------|
C#|------------------------------------------------------------xxxxx0---|

pm                                                             .....



     #   '   '   '   #   '   '   '   #   '   '   '   #   '   '   '
D#|-------------------------------------------------------------------|
A#|--5--------0--5--------0--5-----0-5--------0--5---5----------------|
F#|--x--------3--x--------3--x-----3-x--------3--x---3----------------|
C#|--2--------0--2--------0--2-----0-2--------0--2---2----------------|
G#|-------------------------------------------------------------------|
C#|-----0--2--------0--2---------0------0--2-------0------------------|



VERSE


     #   '   '   '   #   '   '   '   #   '   '   '   #   '   '   '
D#|-------------------------------------------------------------------| \
A#|-------------------------------------------------------------------|  |
F#|-------------------------------------------------------------------|  | x 2
C#|-------------------------------------------------------------------|  |
G#|-------------------------------------------------------------------|  |
C#|--2--2--2-xxxx2-xx2--2--2-xxxx0-xx2-2-2-xx2--0--5-2--0--5-2-xxx0---| /

pm           ....  ..        ....  ..                          ...



     #   '   '   '   #   '   '   '   #   '   '   '   #   '   '   '
D#|--0--0--0-0---0---0--0--0-0-0-0---0--0--0-0---0---0-0-0-0-0-0-0-0--| \
A#|--5--5--5-5---4---5--5--5-5-------5--5--5-5---4----------/5-5-6-6--|  |
F#|--3--3--3-3---2---3--3--3-3-2/5---3--3--3-3---2---3-2-3-2----------|  | x 2
C#|-------------------------------------------------------------------|  |
G#|-------------------------------------------------------------------|  |
C#|-------------------------------------------------------------------| /



     #   '   '   '   #   '   '   '   #   '   '   '   #   '   '   '
D#|--------0-----------0-----------0-------0-----------0--------------|
A#|--6-----------6-----------6-------6-----------6--------------------|
F#|-----7-----7-----7-----7-----7-------7-----7-----7-----7--8---10---|
C#|----------------------------------------------------------x---x----|
G#|----------------------------------------------------------6---8----|
C#|-------------------------------------------------------------------|

let ring ............................................................



BRIDGE 1


     #   '   '   '   #   '   '   '   #   '   '   '   #   '   '   '
D#|-------------------------------------------------------------------| A=13,
A#|-------------------------------------------------------------------| B=14,
F#|----------4--------------------------------------------------------| C=15,
C#|----------4---6----------------------------------------------------| D=16,
G#|----------2---6-----------85859696--------B5B5A5A5B5B5C5C5D5D5E5E5-| E=17,
C#|--0--0--0-----6---0--0--0---------0--0--0--------------------------|

pm   .  .  .         .  .  .                 h h h h h h h h h h h h



     #   '   '   '   #   '   '   '   #   '   '   '   #   '   '   '
D#|-------------------------------------------------------------------| A=9,
A#|-------------------------------------------------------------------| B=10,
F#|-------------------------------------------------------------------| C=11,
C#|----------4---1----------------------------------------------------| D=12,
G#|----------4---1-----------85859696--------B5B5A5A5B5B5C5C5D5D5E5E5-| E=14
C#|--0--0--0-4---1---0--0--0---------0--0--0--------------------------|

pm   .  .  .         .  .  .                 h h h h h h h h h h h h


     #   '   '   '   #   '   '   '   #   '   '   '   #   '   '   '
D#|-------------------------------------------------------------------| A=13,
A#|-------------------------------------------------------------------| B=14,
F#|-------------------------------------------------------------------| C=15,
C#|-------------------------------------------------------------------| D=16,
G#|----------85857474--------85859696--------B5B5A5A5B5B5C5C5D5D5E5E5-| E=17
C#|--0--0--0---------0--0--0---------0--0--0--------------------------|

pm   .  .  .         .  .  .                 h h h h h h h h h h h h



     #   '   '   '   #   '   '   '   #   '   '   '   #   '   '   '
D#|-------------------------------------------------------------------|
A#|-------------------------------------------------------------------|
F#|-------------------------------------------------------------------|
C#|-------------------------------------------------------------------|
G#|----------85857474--------85859696--------555544445555666677778888-|
C#|--0--0--0---------0--0--0---------0--0--0--------------------------|

pm   .  .  .         .  .  .                 ........................



FILL


     #   '   '   '   #   '   '   '   #   '   '   '   #   '   '   '
D#|----------------------------------------13-------------------------|
A#|-------------------------------------11-----11---------------------|
F#|--9-------------9-9-------------9-9---------------9-(5)------------| > bend up
C#|--8-------------8-8-------------8-------------------(5)------------|   these harmonics
G#|--7-------------7-7-------------7----------------------------------|
C#|-------------------------------------------------------------------|



VERSE 2


     #   '   '   '   #   '   '   '   #   '   '   '   #   '   '   '
D#|-------------------------------------------------------------------| \
A#|-------------------------------------------------------------------|  |
F#|-------------------------------------------------------------------|  | x 2
C#|-------------------------------------------------------------------|  |
G#|-------------------------------------------------------------------|  |
C#|--2--2--2-xxxx2-xx2--2--2-xxxx0-xx2-2-2-xx2--0--5-2--0--5-2-xxx0---| /

pm           ....  ..        ....  ..                          ...



     #   '   '   '   #   '   '   '   #   '   '   '   #   '   '   '
D#|--0--0--0-0---0---0--0--0-0-0-0---0--0--0-0---0---0-0-0-0-0-0-0-0--| \
A#|--5--5--5-5---4---5--5--5-5-------5--5--5-5---4----------/5-5-6-6--|  |
F#|--3--3--3-3---2---3--3--3-3-2/5---3--3--3-3---2---3-2-3-2----------|  | x 2
C#|-------------------------------------------------------------------|  |
G#|-------------------------------------------------------------------|  |
C#|-------------------------------------------------------------------| /



     #   '   '   '   #   '   '   '   #   '   '   '
D#|--------0-----------0-----------0-------0----------|
A#|--6-----------6-----------6-------6-----------6----|
F#|-----7-----7-----7-----7-----7-------7-----7-------|
C#|---------------------------------------------------|
G#|---------------------------------------------------|
C#|---------------------------------------------------|

let ring .........................................



FILL 2


     #   '   '   '   #   '   '   '   #   '   '   '   #   '   '   '
D#|-------------------------------------------------------------------|
A#|--------------------------------0----------------------------------|
F#|----------9--9--9---------9--9--0---------9--9--9------------------|
C#|--10\-----8--8--8---------8--8----10\-----8--8--8------------------|
G#|--8\----0-7--7--7-------0-7--7----8\----0-7--7--7------------------|
C#|--8\----0---------------0---------8\----0--------------------------|

pm         .               .               .



     #   '   '   '   #   '   '   '   #   '   '   '   #   '   '   '
D#|-------------------------------------------------------------------| \
A#|--------------------------------0-------------------------------0--|  |
F#|----------9--9--9---------9--9--0---------9--9--9---------9--9--0--|  | x 2
C#|--10\-----8--8--8---------8--8----10\-----8--8--8---------8--8-----|  |
G#|--8\----0-7--7--7-------0-7--7----8\----0-7--7--7-------0-7--7-----|  |
C#|--8\----0---------------0---------8\----0---------------0----------| /

pm         .               .               .



     #   '   '   '   #   '   '   '   #   '   '   '   #   '   '   '
D#|----------------(12)(5)--------------------------------------------| \
A#|-----------------------(5)------0-------------------------------0--|  |
F#|----------9--9--9---------9--9--0---------9--9--9-x--x--x-9--9--0--|  | x 2
C#|--10\-----8--8--8---------8--8----10\-----8--8--8-x--x--x-8--8-----|  |
G#|--8\----0-7--7--7---------7--7----8\----0-7--7--7-x--x--x-7--7-----|  |
C#|--8\----0-------------------------8\----0---------------0----------| /

pm         .                               .               .



     #   '   '   '   #   '   '   '   #   '   '   '   #   '   '   '
D#|------------------------------------------------------0-------0----|
A#|--------------------------------0---------------------0-------0----|
F#|----------9--9--9---------9--9--0---------9--9--9------------------|
C#|--10\-----8--8--8---------8--8----10\-----8--8--8-3-------5--------|
G#|--8\----0-7--7--7-------0-7--7----8\----0-7--7--7-3-------5--------|
C#|--8\----0---------------0---------8\----0---------3-------5--------|

pm         .               .               .



BRIDGE 2


     #   '   '   '   #   '   '   '   #   '   '   '   #   '   '   '
D#|-------------------------------------------------------------------| A=13,
A#|-------------------------------------------------------------------| B=14,
F#|----------4b4b-----------------------------------------------------| C=15,
C#|--------------6----------------------------------------------------| D=16,
G#|--------------6-----------85859696--------B5B5A5A5B5B5C5C5D5D5E5E5-| E=17
C#|--------------6---0--0--0---------0--0--0--------------------------|

pm                   .  .  .                 h h h h h h h h h h h h



     #   '   '   '   #   '   '   '   #   '   '   '   #   '   '   '
D#|-------------------------------------------------------------------| A=13,
A#|-------------------------------------------------------------------| B=14,
F#|-------------------------------------------------------------------| C=15,
C#|----------4---1----------------------------------------------------| D=16,
G#|----------4---1-----------85859696--------B5B5A5A5B5B5C5C5D5D5E5E5-| E=17
C#|--0--0--0-4---1---0--0--0---------0--0--0--------------------------|

pm   .  .  .         .  .  .                 h h h h h h h h h h h h


     #   '   '   '   #   '   '   '   #   '   '   '   #   '   '   '
D#|-------------------------------------------------------------------|
A#|-------------------------------------------------------------------|
F#|-------------------------------------------------------------------|
C#|-------------------------------------------------------------------| A=9,
G#|----------85857474--------85859696--------8585747485859696A5A5B5B5-| B=10
C#|--0--0--0---------0--0--0---------0--0--0--------------------------|

pm   .  .  .         .  .  .                 h h h h h h h h h h h h



     #   '   '   '   #   '   '   '   #   '   '   '   #   '   '   '
D#|-------------------------------------------------------------------|
A#|-------------------------------------------------------------------|
F#|-------------------------------------------------------------------|
C#|-------------------------------------------------------------------|
G#|----------85857474--------85859696--------555544445555666677778888-|
C#|--0--0--0---------0--0--0---------0--0--0--------------------------|

pm   .  .  .         .  .  .                 ........................



ENDING (the first part is in 31/16, the second in 4/4))


     #   '   '   '   #   '   '   '   #   '   '   '   #   '   '   '
D#|----------------------------------1/--------16-15----------------| \
A#|------------------0---------------0---------20-19----------------|  |
F#|------------------3-------------------------------16-17---161718-|  | x 4
C#|---------------------4--0-------------------------15-16---151617-|  |
G#|---------------------4--0-1--1--1-------0-0-------14-15---141516-|  |
C#|--0000000------------4--0-1--1--1-------0-0---0---------0--------| /

pm   .......               . .  .  .       . .   .         .



     #   '   '   '   #   '   '   '   #   '   '   '   #   '   '   '
D#|-------------------------------------------------------------------| \
A#|------------------3-------------------------3-----3----------------|  |
F#|------------------3-------------------------3-----3----------------|  | x 4
C#|---------------------4------------------------4------4-------------|  |
G#|-------------------------------------------------------------------|  |
C#|--0000000---------------0-1--1--1-0000000-------0-------0-1--1--1--| /

pm   ......                          ...... 



     #   '   '   '
D#|------------------|
A#|------------------|
F#|------------------|
C#|------------------|
G#|------------------|
C#|--0000000---------|

pm   .......






            
            
Suggest correction
Creating personal tab
Creating personal tab
You can edit any tab online and save it as your Personal.

You can edit, replace or remove any tab part or add personal notes – all changes will be seen only by you.

Personal tabs can be accessed anytime from any device, even offline.
Learn more »
Give kudos to tab author, rate the tab!
1 2 3 4 5
comments
print report bad tab
guest
You may want to rate the tab now too:
select rating
Wanna post a correction for this tab? Suggest correction