Oops, an error
Loading. Please wait.

Inhabit The Wound tab

version 1
version 1

Whole song

Interactive

100 views 3 this week
no commentswrite comment
1 2 3 4 5
3 more votes to show rating
add to favorites
×
Save as Personal and add changes to this tab that will be seen only by you. Learn more ›
×
You can save this tab as Personal to edit and correct it or add notes. All changes will be seen only by you. Learn more »
launch autoscroll
font size
0
reset
how to read this tab
guitar tuner
edit
Autoscroll
slow
fast
+/-
esc
set tempo
stop
[Inhabit The Wound]
[Everything Was Sound]
[Silent Planet]

Tuning : Ab Eb Ab Db F Bb
Playthrough: https://www.youtube.com/watch?v=SFbVpSaoj8M

[Riff 1] - [00:00] - [00:56] - [3x]
   T     T    T    T     T    T    T     T    T    T     T    T
- -----------------------------------------------------------------
- -15p10-----------15p10-----------17p10-----------18p10----------- 
- -------15p7------------15p7------------15p7------------15p7------
- ------------15p8------------15p8------------15p8------------15p8-
- -----------------------------------------------------------------
- -----------------------------------------------------------------

   T     T    T    T     T    T    T     T    T    T     T    T
- -----------------------------------------------------------------
- -15p10-----------15p10-----------17p10-----------18p10----------- 
- -------15p7------------15p7------------15p7------------15p7------
- ------------15p8------------15p8------------15p8------------15p8-
- -----------------------------------------------------------------
- -----------------------------------------------------------------

   T         T    T         T    T         T    T    T    T
- -------------------------------------------------------------
- -15p8h10p8------15p8h10p8------17p8h10p8----------------17p8-
- ----------------------------------------------18p7-14p7------
- -----------14p7-----------14p7-----------14p7----------------
- -------------------------------------------------------------
- -------------------------------------------------------------

   T         T    T         T    T         T    T         T
- -------------------------------------------------------------
- -15p8h10p8------15p8h10p8------17p8h10p8------18p8h10p8------
- -------------------------------------------------------------
- -----------14p7-----------14p7-----------14p7-----------14p8-
- -------------------------------------------------------------
- -------------------------------------------------------------


[Riff 2a, Guitar 1 & 2] - [00:56] - [01:15]
- -------------------------------------------------------------------------------------------------
- -10----------------------------------------------------------------------------------------------
- -12----------------------------------10----------------------------------------------9-----------
- -7---------------------------------------14----------------------------------------------12------
- ---------------------------------------------10-/12------------------------------------------10\-
- -------------------------------------------------------------------------------------------------
-
- -17--------------------------------------17----------------------------------------------17------
- ---------------------------------------------15--14------------------------------------------15--
- -------------------------------------------------------------------------------------------------
- -------------------------------------------------------------------------------------------------
- -------------------------------------------------------------------------------------------------
- -------------------------------------------------------------------------------------------------


- -------------------------------------------------------------------------------------------------
- -----------------------------------------6--\8---------------------------------------------------
- -------------------------------------9-----------9-----------------------------------------------
- -------------------------------------------------------------------------------------------------
- \8-----------------------------------------------------------------------------------------------
- -------------------------------------------------------------------------------------------------
-
- -----------------------------------------17------------------------------------------------------
- -17------------------------------------------15--14----------------------------------------------
- -------------------------------------------------------------------------------------------------
- -------------------------------------------------------------------------------------------------
- -------------------------------------------------------------------------------------------------
- -------------------------------------------------------------------------------------------------


[Riff 2b] - [00:56] - [01:34] - [8x]
   T     T     T    T     T     T    T     T     T    T     T     T
- -17p10------------17p10------------18p10------------15p10------------
- -------17p10------------17p10------------17p10------------17p10------
- -------------15p7-------------15p7-------------15p7-------------15p7-
- ---------------------------------------------------------------------
- ---------------------------------------------------------------------
- ---------------------------------------------------------------------


[Riff 1] - [01:34] - [02:11] - [x2]

[Riff 3] - [01:34] - [02:11]
- -----------------------------------------------------------------
- -10---10-10-10---10---10-10-10---10---10-10-10---10---10-10-10---
- -7----7--7--7----7----7--7--7----7----7--7--7----7----7--7--7----
- -8----8--8--8----8----8--8--8----8----8--8--8----8----8--8--8----
- -----------------------------------------------------------------
- -----------------------------------------------------------------

- -----------------------------------------------------------------
- -11---11-11-11---11---11-11-11---11---11-11-11---11---11-11-11---
- -7----7--7--7----7----7--7--7----7----7--7--7----7----7--7--7----
- -8----8--8--8----8----8--8--8----8----8--8--8----8----8--8--8----
- -----------------------------------------------------------------
- -----------------------------------------------------------------

- -----------------------------------------------------------------
- -10---10-10-10---10---10-10-10---10---10-10-10---10---10-10-10---
- -6----6--6--6----6----6--6--6----6----6--6--6----6----6--6--6----
- -7----7--7--7----7----7--7--7----7----7--7--7----7----7--7--7----
- -----------------------------------------------------------------
- -----------------------------------------------------------------

- -----------------------------------------------------------------
- -10---10-10-10---10---10-10-10---10---10-10-10---10---10-10-10---
- -6----6--6--6----6----6--6--6----6----6--6--6----6----6--6--6----
- -7----7--7--7----7----7--7--7----7----7--7--7----7----7--7--7----
- -----------------------------------------------------------------
- -----------------------------------------------------------------

- -----------------------------------------------------------------
- -10---10-10-10---10---10-10-10---10---10-10-10---10---10-10-10---
- -7----7--7--7----7----7--7--7----7----7--7--7----7----7--7--7----
- -8----8--8--8----8----8--8--8----8----8--8--8----8----8--8--8----
- -----------------------------------------------------------------
- -----------------------------------------------------------------


- -----------------------------------------------------------------
- -10---10-10-10---10---10-10-10---10---10-10-10---10---10-10-10---
- -7----7--7--7----7----7--7--7----7----7--7--7----7----7--7--7----
- -8----8--8--8----8----8--8--8----8----8--8--8----8----8--8--8----
- -----------------------------------------------------------------
- -----------------------------------------------------------------

- -----------------------------------------------------------------
- -11---11-11-11---11---11-11-11---11---11-11-11---11---11-11-11---
- -7----7--7--7----7----7--7--7----7----7--7--7----7----7--7--7----
- -7----7--7--7----7----7--7--7----7----7--7--7----7----7--7--7----
- -----------------------------------------------------------------
- -----------------------------------------------------------------

- -----------------------------------------------------------------
- -11---11-11-11---11---11-11-11---11---11-11-11---11---11-11-11---
- -7----7--7--7----7----7--7--7----7----7--7--7----7----7--7--7----
- -7----7--7--7----7----7--7--7----7----7--7--7----7----7--7--7----
- -----------------------------------------------------------------
- -----------------------------------------------------------------

[Riff 2b] - [02:11] - [02:30] - [x4]

[Riff 4a] - [02:30] - [03:08]
- ---------------------------------------------------------
- ---------------------------------------------------------
- ---------------------------------------------------------
- -8----8--8--8--8--8------8----8--8--8--8--8----8----8----
- -12---12-12-12-12-12-----12---12-12-12-12-12---12---12---
- -0----0--0--0--0--0------0----0--0--0--0--0----0----0----

- ---------------------------------------------------------
- ---------------------------------------------------------
- ---------------------------------------------------------
- -8----8--8--8--8--8------8----8--8--8--8--8----8----8----
- -12---12-12-12-12-12-----12---12-12-12-12-12---12---12---
- -11---11-11-11-11-11-----11---11-11-11-11-11---11---11---

- ---------------------------------------------------------
- ---------------------------------------------------------
- ---------------------------------------------------------
- -8----8--8--8--8--8------8----8--8--8--8--8----8----8----
- -12---12-12-12-12-12-----12---12-12-12-12-12---12---12---
- -8----8--8--8--8--8------8----8--8--8--8--8----8----8----

- ---------------------------------------------------------
- ---------------------------------------------------------
- ---------------------------------------------------------
- -8----8--8--8--8--8------8----8--8--8--8--8----8----8----
- -12---12-12-12-12-12-----12---12-12-12-12-12---12---12---
- -7----7--7--7--7--7------7----7--7--7--7--7----7----7----

- ---------------------------------------------------------
- ---------------------------------------------------------
- ---------------------------------------------------------
- -8----8--8--8--8--8------8----8--8--8--8--8----8----8----
- -12---12-12-12-12-12-----12---12-12-12-12-12---12---12---
- -0----0--0--0--0--0------0----0--0--0--0--0----0----0----

- ---------------------------------------------------------
- ---------------------------------------------------------
- ---------------------------------------------------------
- -8----8--8--8--8--8------8----8--8--8--8--8----8----8----
- -12---12-12-12-12-12-----12---12-12-12-12-12---12---12---
- -11---11-11-11-11-11-----11---11-11-11-11-11---11---11---

- ---------------------------------------------------------
- ---------------------------------------------------------
- ---------------------------------------------------------
- -8----8--8--8--8--8------8----8--8--8--8--8----8----8----
- -12---12-12-12-12-12-----12---12-12-12-12-12---12---12---
- -8----8--8--8--8--8------8----8--8--8--8--8----8----8----

- ---------------------------------------------------------
- ---------------------------------------------------------
- ---------------------------------------------------------
- -8----8--8--8--8--8------8----8--8--8--8--8----8----8----
- -12---12-12-12-12-12-----12---12-12-12-12-12---12---12---
- -8----8--8--8--8--8------11---11-11-11-11-11---11---11---


[Riff 4b] - [Guitar 1 & 2] - [02:30] - [03:08] - [x2]
- -------------------------------------------------------------------------------------------------
- -------------------------------------------------------------------------------------------------
- -19---------------------\18---------------------/19---------------------\18----------------------
- -------------------------------------------------------------------------------------------------
- -------------------------------------------------------------------------------------------------
- -------------------------------------------------------------------------------------------------
AP ...............................................................................................
- -------------------------------------------------------------------------------------------------
- -22---------------------/23---------------------\22---------------------/23----------------------
- -------------------------------------------------------------------------------------------------
- -------------------------------------------------------------------------------------------------
- -------------------------------------------------------------------------------------------------
- -------------------------------------------------------------------------------------------------
AP ...............................................................................................

[Riff 4c] - [02:49] - [03:08]
- -------------------------------------------------------------------------------------------------
- -------15----------------15----------------------------14----------------14----------------------
- -------------------------------------------------------------------------------------------------
- -------------------------------------------------------------------------------------------------
- -------------------------------------------------------------------------------------------------
- -------------------------------------------------------------------------------------------------

- -------------------------------------------------------------------------------------------------
- -------15----------------------------------------------14----------------------15----------------
- -------------------------15----------------------------------------------------------------------
- -------------------------------------------------------------------------------------------------
- -------------------------------------------------------------------------------------------------
- -------------------------------------------------------------------------------------------------

[Riff 5a] - [03:08] - [03:31]
- -------------------------------------------------------------------------------------------------
- -------------------------------------10--10--11--------------------------------------------------
- -------------------------------------6---6---6---------------------------------------------------
- -7-----------7-----------7-----------7---7---7---8-----------8-----------8-----------------------
- -5-----------5-----------5-----------------------6-----------6-----------6-----------------------
- -0-----------0-----------0-----------------------0-----------0-----------0-----------------------


[Riff 5b, Guitar 1 & 2] - [03:08] - [03:31]
- -22---------------------------------\21---------------------/22----------22~---------------------
- -------------------------------------------------------------------------------------------------
- -------------------------------------------------------------------------------------------------
- -------------------------------------------------------------------------------------------------
- -------------------------------------------------------------------------------------------------
- -------------------------------------------------------------------------------------------------
AP ........................................................................
- -22---------------------------------/23---------------------\22----------22~---------------------
- -------------------------------------------------------------------------------------------------
- -------------------------------------------------------------------------------------------------
- -------------------------------------------------------------------------------------------------
- -------------------------------------------------------------------------------------------------
- -------------------------------------------------------------------------------------------------
AP ........................................................................

[Symbols]

PM... Palm Mute notes with (...) under them
AP... Alternate Pick notes with (...) under them
h     Hammer On
p     Pull Off
[ ]   Harmonic
/     Slide Up
\     Slide Down
x     Dead Note
b     Bend
hb    Hold Bend
pb    Pre-Bend
r     Release Bend
(x )  Play Notes x amount of times
~     Let Ring
\\\   Pick Slide Down
///   Pick Slide Up
/ 3 \ Notes are triplets (3 notes in the space of two)
w\    Whammy Bar Down
w/    Whammy Bar Up
wh    Whammy Bar Hold
T     Right Hand Tap
L     Left Hand Tap

:)

            
            
Suggest correction
Creating personal tab
Creating personal tab
You can edit any tab online and save it as your Personal.

You can edit, replace or remove any tab part or add personal notes – all changes will be seen only by you.

Personal tabs can be accessed anytime from any device, even offline.
Learn more »
Give kudos to tab author, rate the tab!
1 2 3 4 5
comments
print report bad tab
guest
You may want to rate the tab now too:
select rating
Wanna post a correction for this tab? Suggest correction