Oops, an error
Loading. Please wait.

Orphan tab

version 1
version 1

Whole song

Interactive

466 views 21 this week
no commentswrite comment
1 2 3 4 5
3 more votes to show rating
add to favorites
×
Save as Personal and add changes to this tab that will be seen only by you. Learn more ›
×
You can save this tab as Personal to edit and correct it or add notes. All changes will be seen only by you. Learn more »
launch autoscroll
font size
0
reset
how to read this tab
guitar tuner
edit
Autoscroll
slow
fast
+/-
esc
set tempo
stop
[Orphan]
[Everything Was Sound]
[Silent Planet]

Tuning: Ab Eb Ab Db F Bb
Playthrough: https://www.youtube.com/watch?v=JjCYqKFjQeI

[Riff 1, Guitar 1 & 2] - [00:00] - [00:12]
- ---------------------------------------------------------14----------------
- ---------------------------------------------------------------16p15-------
- -7---7-------8-----7-------------8---8----------------12-------------12p11-
- ---------------------5p4---------------------------17-------12-------------
- ---6---6-------5h6-------6---------5---5-----------------------------------
- ---------0-----------------0h1h4---------0---13h16-------------------------
-
- ---------------------------------------------------------14----------------
- ---------------------------------------------------------------16p15-------
- -7---7-------8-----7-------------8---8----------------12-------------12p11-
- ---------------------5p4---------------------------17-------12-------------
- ---6---6-------5h6-------6---------5---5-----------------------------------
- ---------0-----------------0h1h4---------0---13h16-------------------------


- --------------------------------------------------------------------------------------------------
- -13----13--------8--------7-------------------8-----8---------------------------------------------
- -----------------------------5p4------------------------------------------------------------------
- ----15----15--------5h6------------6-------------5-----5------------12------13-12-----------------
- -----------------------------------------------------------------------10-9-------10-9----6~------
- -------------0------------------------0h1h4---------------0---13h16--------------------13-0~------
-
- -15----15-----------------------------------------------------------------------------------------
- -----------------16-------15------------------16----16--------------------------------------------
- ----12----12-----------------12p11----------------------------------------------------------------
- --------------------12h13----------13------------12----12-----------12------13-12-----------------
- -----------------------------------------------------------------------10-9-------10-9----6~------
- -------------0------------------------0h13h16-------------0---13h16--------------------13-0~------


[Riff 2a, Guitar 1 & 2] - [00:12] - [00:31]
- ------------------------------------------------------------------------
- ------------------------------------------------------------------------
- ------------------------------------------------------------------------
- -------------------------------------------------17---------16----------
- ----------------------------------------------------12------------------
- -0---0-------------0-----------0-0---------------------17-0----17-16-13-
PM                               .
- ------------------------------------------------------------------------
- ------------------------------------------------------------------------
- ---------7-----8p7-----------8p7---------8------------------------------
- -------------------------------------------------17---------16----------
- -----------5h6-----------5h6---------------6p5------12------------------
- -0---0-------------0-------------1b------------0-------17-0----17-16-13-


- ------------------------------------------------------------------------
- ---------------------------------------------------------------------16-
- ------------------------------------------------------------------19----
- -------------------------------------------------17---------16h17-------
- ----------------------------------------------------12------------------
- -0---0-------------0-------------0pbr----0pbr----------17-0-------------
-
- ------------------------------------------------------------------------
- ---------------------------------------------------------------------16-
- ---------7-----8p7-----------8p7----------------------------------19----
- -------------------------------------------------17---------16h17-------
- -----------5h6-----------5h6------------------------12------------------
- -0---0-------------0-------------1pbr----1pbr----------17-0-------------


- ------------------------------------------------------------------------
- ------------------------------------------------------------------------
- ------------------------------------------------------------------------
- -------------------------------------------------17---------16----------
- ----------------------------------------------------12------------------
- -0---0-------------0-----------0-0---------------------17-0----17-16-13-
PM                               .
- ------------------------------------------------------------------------
- ------------------------------------------------------------------------
- ---------7-----8p7-----------8p7---------8------------------------------
- -------------------------------------------------17---------16----------
- -----------5h6-----------5h6---------------6p5------12------------------
- -0---0-------------0-------------1b------------0-------17-0----17-16-13-


- -----------------------------------------------------------------------------
- ---------15-------16p15---------16p15-------------------------------------16-
- -----------------------------------------------------------------------19----
- ------------12h13---------12h13-----------------------17---------16h17-------
- ---------------------------------------------------------12------------------
- -0---0------------------0-------------0pbr----0pbr----------17-0-------------
-
- -----------------------------------------------------------------------------
- --------------------------------------------------------------------------16-
- ---------7--------8p7-----------8p7------------------------------------19----
- ------------------------------------------------------17---------16h17-------
- ------------5h6-----------5h6----------------------------12------------------
- -0---0------------------0-------------1pbr----1pbr----------17-0-------------


[Riff 2b] - [00:12] - [00:31] - [Delay]
- -----------------------------------------------------------------
- -----------------------------------------------------------------
- -11--------------11b---------------------------------------------
- ---------------------------------13--------------12pbr-----------
- -----------------------------------------------------------------
- -----------------------------------------------------------------
AP ...............................................................

- -----------------------------------------------------------------
- -----------------------------------------------------------------
- -11--------------11b-------------------------------------14------
- ---------------------------------13--------------12pbr-----------
- -----------------------------------------------------------------
- -----------------------------------------------------------------
AP ...............................................................

[Riff 3a] - [00:31] - [00:41] - [Delay]
- -----------------------------------------------------------------
- -------------------------------------------------15--------------
- -14b-------------14hb------------14rb----------------------------
- -----------------------------------------------------------------
- -----------------------------------------------------------------
- -----------------------------------------------------------------
AP ...............................................................

[Riff 3b] - 00:31] - [00:41] - [Delay & Clean]
- -----------------------------23--22b-----18b---------------------
- -----------------------19----------------------------------------
- -------------19--20----------------------------------------------
- -----------------------------------------------------------------
- -----------------------------------------------------------------
- -----------------------------------------------------------------

- -----------------------------23--22------------------------------
- -----------------------19----------------------------------------
- -------------19--20----------------------------------------------
- -----------------------------------------------------------------
- -----------------------------------------------------------------
- -----------------------------------------------------------------

[Riff 4, Guitar 1 & 2] - [00:41] - [01:00]
- ------------------------------------------------------------------
- -----------------------------------------------------------15-----
- -7-7---7-7---------------7-7---7-7--------------------------------
- -5-5---5-5---------------5-5---5-5-----------------12-------------
- -6-6---6-6---------------6-6---6-6---------10---------------------
- -----0-----0-0---------------0-----0-0----------------------------
PM     .     ...               .     ...
- ---------------------------------------------------------------11-
- ------------------------------------------------------------------
- -7-7---7-7---------------7-7---7-7---------------------8----------
- -5-5---5-5---------------5-5---5-5--------------------------------
- -6-6---6-6---------------6-6---6-6-------------9------------------
- -----0-----0-0---------------0-----0-0----------------------------
PM     .     ...               .     ...


- -------------------------------------------------------------------------
- -------------------------------------------------------------------------
- -7-7---7-7---------------7-7---7-7---------------------------------------
- -5-5---5-5---------------5-5---5-5-----------------12------13-12---------
- -6-6---6-6---------------6-6---6-6--------------------10-9-------10-9----
- -----0-----0-0---------------0-----0-0-----0h13h16--------------------13-
PM     .     ...               .     ...
- -------------------------------------------------------------------------
- -------------------------------------------------------------------------
- -7-7---7-7---------------7-7---7-7---------------------------------------
- -5-5---5-5---------------5-5---5-5-----------------12------13-12---------
- -6-6---6-6---------------6-6---6-6--------------------10-9-------10-9----
- -----0-----0-0---------------0-----0-0-----0h13h16--------------------13-
PM     .     ...               .     ...


- -----------------------------------------------------------11-----
- ---------------------------------------------------13-------------
- -7-7---7-7---------------7-7---7-7--------------------------------
- -5-5---5-5---------------5-5---5-5---------12---------------------
- -6-6---6-6---------------6-6---6-6--------------------------------
- -----0-----0-0---------------0-----0-0----------------------------
PM     .     ...               .     ...
- ---------------------------------------------------------------17-
- -------------------------------------------------------15---------
- -7-7---7-7---------------7-7---7-7--------------------------------
- -5-5---5-5---------------5-5---5-5-------------13-----------------
- -6-6---6-6---------------6-6---6-6--------------------------------
- -----0-----0-0---------------0-----0-0----------------------------
PM     .     ...               .     ...


- -------------------------------------------------------------------------
- -------------------------------------------------------------------------
- -7-7---7-7---------------7-7---7-7---------------------------------------
- -5-5---5-5---------------5-5---5-5-----------------12------13-12---------
- -6-6---6-6---------------6-6---6-6--------------------10-9-------10-9----
- -----0-----0-1pbr------------0-----0-0-----0h13h16--------------------13-
PM     .     ...               .     ...
- -------------------------------------------------------------------------
- -------------------------------------------------------------------------
- -7-7---7-7---------------7-7---7-7---------------------------------------
- -5-5---5-5---------------5-5---5-5-----------------12------13-12---------
- -6-6---6-6---------------6-6---6-6--------------------10-9-------10-9----
- -----0-----0-0prb------------0-----0-0-----0h13h16--------------------13-
PM     .     ...               .     ...


[Riff 5, Guitar 1 & 2] - [01:00] - [01:10] - [Delay]
- -----------------------------------------------------------------
- -----------------------------------------------------------------
- -----------------------------------------------------------------
- -----------------------------------------------------------------
- -6-------------------------------5-------------------------------
- -----------------------------------------------------------------
AP ...............................................................
- -----------------------------------------------------------------
- -15--------------------------------------------------------------
- -----------------------------------------------------------------
- -----------------------------------------------------------------
- -----------------------------------------------------------------
- -----------------------------------------------------------------
AP ...............................................................

[Riff 3b] - [01:00] - [01:29] - [3x]

[Riff 6, Guitar 1 & 2] - [01:10] - [01:29] - [Guitar 2 - Delay]
- -6-6-6-6-6-6-6-6-6-6-6-6-6-6-6-6-5-5-5-5-5-5-5-5-5-5-5-5-5-5-5-5-
- -8-8-8-8-8-8-8-8-8-8-8-8-8-8-8-8-3-3-3-3-3-3-3-3-3-3-3-3-3-3-3-3-
- -7-7-7-7-7-7-7-7-7-7-7-7-7-7-7-7-3-3-3-3-3-3-3-3-3-3-3-3-3-3-3-3-
- -5-5-5-5-5-5-5-5-5-5-5-5-5-5-5-5-7-7-7-7-7-7-7-7-7-7-7-7-7-7-7-7-
- -5-5-5-5-5-5-5-5-5-5-5-5-5-5-5-5-3-3-3-3-3-3-3-3-3-3-3-3-3-3-3-3-
- -5-5-5-5-5-5-5-5-5-5-5-5-5-5-5-5---------------------------------
-
- -----------------------------------------------------------------
- -11--------------------------------------------------------------
- ---------------------------------14------------------------------
- -----------------------------------------------------------------
- -----------------------------------------------------------------
- -----------------------------------------------------------------
AP ...............................................................


- -----------------------------------------------------------------
- -3-3-3-3-3-3-3-3-3-3-3-3-3-3-3-3---------------------------------
- -3-3-3-3-3-3-3-3-3-3-3-3-3-3-3-3---------------------------------
- -1-1-1-1-1-1-1-1-1-1-1-1-1-1-1-1-0-0-0-0-0-0-0-0-0-0-0-0-0-0-0-0-
- -1-1-1-1-1-1-1-1-1-1-1-1-1-1-1-1-0-0-0-0-0-0-0-0-0-0-0-0-0-0-0-0-
- -1-1-1-1-1-1-1-1-1-1-1-1-1-1-1-1-0-0-0-0-0-0-0-0-0-0-0-0-0-0-0-0-
-
- -----------------------------------------------------------------
- -----------------------------------------------------------------
- ---------------------------------11----------------------11b-----
- -12--------------------------------------------------------------
- -----------------------------------------------------------------
- -----------------------------------------------------------------
AP ...............................................................


[Riff 7] - [01:29] - [01:31]
- -22--------------
- -20--------------
- -20--------------
- -----------------
- -----------------
- -----------------


[Riff 8a, Guitar 1 & 2] - [01:31] - [01:50]
- ------------------------------------------------------------------------
- ------------------------------------------------------------------------
- ------------------------------------------------------------------------
- -------------------------------------------------17---------16----------
- ----------------------------------------------------12------------------
- -0---0-------------0-----------0-0---------------------17-0----17-16-13-
PM                               .
- ------------------------------------------------------------------------
- ------------------------------------------------------------------------
- ------------------------------------------------------------------------
- -------------------------------------------------17---------16----------
- -------------------------------------------6p5------12------------------
- -0---0-------------0-----------0-1b------------0-------17-0----17-16-13-
PM                               .


- ------------------------------------------------------------------------
- ---------------------------------------------------------------------16-
- ------------------------------------------------------------------19----
- -------------------------------------------------17---------16h17-------
- ----------------------------------------------------12------------------
- -0---0-------------0-------------0pbr----0pbr----------17-0-------------
-
- ------------------------------------------------------------------------
- ---------------------------------------------------------------------16-
- ------------------------------------------------------------------19----
- -------------------------------------------------17---------16h17-------
- ----------------------------------------------------12------------------
- -0---0-------------0-------------1pbr----1pbr----------17-0-------------


- ------------------------------------------------------------------------
- ------------------------------------------------------------------------
- ------------------------------------------------------------------------
- -------------------------------------------------17---------16----------
- ----------------------------------------------------12------------------
- -0---0-------------0-----------0-0---------------------17-0----17-16-13-
PM                               .
- ------------------------------------------------------------------------
- ------------------------------------------------------------------------
- -----------------------------------------8------------------------------
- -------------------------------------------------17---------16----------
- -------------------------------------------6p5------12------------------
- -0---0-------------0-----------0-1b------------0-------17-0----17-16-13-
PM                               .


- -----------------------------------------------------------------------------
- ---------15-------16p15---------16p15-------------------------------------16-
- -----------------------------------------------------------------------19----
- ------------12h13---------12h13-----------------------17---------16h17-------
- ---------------------------------------------------------12------------------
- -0---0------------------0-------------0pbr----0pbr----------17-0-------------
-
- -----------------------------------------------------------------------------
- --------------------------------------------------------------------------16-
- ---------7--------8p7-----------8p7------------------------------------19----
- ------------------------------------------------------17---------16h17-------
- ------------5h6-----------5h6----------------------------12------------------
- -0---0------------------0-------------1pbr----1pbr----------17-0-------------


[Riff 8b] - [01:31] - [01:50] - [Delay]
- -----------------------------------------------------------------
- -----------------------------------------------------------------
- -11--------------11b---------------------------------------------
- ---------------------------------13--------------12pbr-----------
- -----------------------------------------------------------------
- -----------------------------------------------------------------
AP ...............................................................

- -----------------------------------------------------------------
- -----------------------------------------------------------------
- -11--------------11b-----------------------------14--------------
- ---------------------------------13------12----------------------
- -----------------------------------------------------------------
- -----------------------------------------------------------------
AP ...............................................................


[Riff 9, Guitar 1 & 2] - [01:50] - [02:29] - [Delay]
- -----------------------------------------------------------------
- -----------------------------------------------------------------
- -14b-------------14----------------------------------------------
- ---------------------------------13--------------16--------------
- -----------------------------------------------------------------
- -----------------------------------------------------------------
AP ...............................................................
- -----------------------------------------------------------------
- -15--------------13----------------------------------------------
- ---------------------------------15--------------14--------------
- -----------------------------------------------------------------
- -----------------------------------------------------------------
- -----------------------------------------------------------------
AP ...............................................................


- -----------------------------------------------------------------
- -----------------------------------------------------------------
- -15--------------14----------------------------------------------
- ---------------------------------13--------------16--------------
- -----------------------------------------------------------------
- -----------------------------------------------------------------
AP ...............................................................
- -----------------------------------------------------------------
- -15--------------13----------------------------------------------
- ---------------------------------15--------------14--------------
- -----------------------------------------------------------------
- -----------------------------------------------------------------
- -----------------------------------------------------------------
AP ...............................................................


[Riff 3b] - [02:10] - [03:07] - [6x]

[Riff 10a] - [02:29] - [03:15]
- -6-6-6-6-6-6-6-6-6-6-6-6-6-6-6-6-5-5-5-5-5-5-5-5-5-5-5-5-5-5-5-5-
- -8-8-8-8-8-8-8-8-8-8-8-8-8-8-8-8-3-3-3-3-3-3-3-3-3-3-3-3-3-3-3-3-
- -7-7-7-7-7-7-7-7-7-7-7-7-7-7-7-7-3-3-3-3-3-3-3-3-3-3-3-3-3-3-3-3-
- -5-5-5-5-5-5-5-5-5-5-5-5-5-5-5-5-7-7-7-7-7-7-7-7-7-7-7-7-7-7-7-7-
- -5-5-5-5-5-5-5-5-5-5-5-5-5-5-5-5-3-3-3-3-3-3-3-3-3-3-3-3-3-3-3-3-
- -5-5-5-5-5-5-5-5-5-5-5-5-5-5-5-5---------------------------------

- -----------------------------------------------------------------
- -3-3-3-3-3-3-3-3-3-3-3-3-3-3-3-3---------------------------------
- -3-3-3-3-3-3-3-3-3-3-3-3-3-3-3-3---------------------------------
- -1-1-1-1-1-1-1-1-1-1-1-1-1-1-1-1-0-0-0-0-0-0-0-0-0-0-0-0-0-0-0-0-
- -1-1-1-1-1-1-1-1-1-1-1-1-1-1-1-1-0-0-0-0-0-0-0-0-0-0-0-0-0-0-0-0-
- -1-1-1-1-1-1-1-1-1-1-1-1-1-1-1-1-0-0-0-0-0-0-0-0-0-0-0-0-0-0-0-0-

- -6-6-6-6-6-6-6-6-6-6-6-6-6-6-6-6-5-5-5-5-5-5-5-5-5-5-5-5-5-5-5-5-
- -8-8-8-8-8-8-8-8-8-8-8-8-8-8-8-8-3-3-3-3-3-3-3-3-3-3-3-3-3-3-3-3-
- -7-7-7-7-7-7-7-7-7-7-7-7-7-7-7-7-3-3-3-3-3-3-3-3-3-3-3-3-3-3-3-3-
- -5-5-5-5-5-5-5-5-5-5-5-5-5-5-5-5-7-7-7-7-7-7-7-7-7-7-7-7-7-7-7-7-
- -5-5-5-5-5-5-5-5-5-5-5-5-5-5-5-5-3-3-3-3-3-3-3-3-3-3-3-3-3-3-3-3-
- -5-5-5-5-5-5-5-5-5-5-5-5-5-5-5-5---------------------------------

- -----------------------------------------------------------------
- -7-7-7-7-7-7-7-7-7-7-7-7-7-7-7-7-7-7-7-7-7-7-7-7-7-7-7-7-7-7-7-7-
- -5-5-5-5-5-5-5-5-5-5-5-5-5-5-5-5-7-7-7-7-7-7-7-7-7-7-7-7-7-7-7-7-
- -4-4-4-4-4-4-4-4-4-4-4-4-4-4-4-4-7-7-7-7-7-7-7-7-7-7-7-7-7-7-7-7-
- -3-3-3-3-3-3-3-3-3-3-3-3-3-3-3-3-5-5-5-5-5-5-5-5-5-5-5-5-5-5-5-5-
- -----------------------------------------------------------------

[Riff 10b] - [02:48] - [03:15] - [Delay]
- -17b-------------17hb------------17rb------------17-----/20------
- -----------------------------------------------------------------
- -----------------------------------------------------------------
- -----------------------------------------------------------------
- -----------------------------------------------------------------
- -----------------------------------------------------------------
AP ...............................................................

- -----------------------------------------------------------------
- -20----------------------------------------------19--------------
- -------------------------19br----19------------------------------
- -----------------------------------------------------------------
- -----------------------------------------------------------------
- -----------------------------------------------------------------


[Riff 11, Guitar 1 & 2] - [03:15] - [03:47]
- -----------------------------------------------------------------
- -----------------------------------------------------------------
- -----------------------------------------------------------------
- -------------------------------------------------5-------4-------
- -----------------------------------------------------------------
- -0pbr----0pbr--------0---------------0-------------7-5-0---5-4-1-
-
- -----------------------------------------------------------------
- -----------------------------------------------------------------
- -----------------------------------------------------------------
- -------------------------------------------------5-------4-------
- -----------------------------------------------------------------
- -1pbr----2-----------0---------------0-------------7-5-0---5-4-1-


- -----------------------------------------------------------------
- -----------------------------------------------------------------
- -----------------------------------------------------------------
- -----------------------------------------------------------------
- ---------------------------------6-------------------------------
- ---------0pbr--------1-----------0-------------------------------
-
- -----------------------------------------------------------------
- -----------------------------------------------------------------
- -----------------------------------------------------------------
- -----------------------------------------------------------------
- ---------------------------------6-------------------------------
- ---------1pbr--------0-----------0-------------------------------


- -----------------------------------------------------------------
- -----------------------------------------------------------------
- -----------------------------------------------------------------
- -----------------------------------------------------------------
- -----------------------------------------------------------------
- -0pbr----0pbr--------0---------------0---------------------------
-
- -----------------------------------------------------------------
- -----------------------------------------------------------------
- -----------------------------------------------------------------
- -----------------------------------------------------------------
- -----------------------------------------------------------------
- -0w\-----0w\---------0wh-------------0w\-------------------------


[Symbols]

PM... Palm Mute notes with (...) under them
AP... Alternate Pick notes with (...) under them
h     Hammer On
p     Pull Off
[ ]   Harmonic
/     Slide Up
\     Slide Down
x     Dead Note
b     Bend
hb    Hold Bend
pb    Pre-Bend
r     Release Bend
(x )  Play Notes x amount of times
~     Let Ring
\\\   Pick Slide Down
/ 3 \ Notes are triplets (3 notes in the space of two)
w\    Whammy Bar Down
w/    Whammy Bar Up
wh    Whammy Bar Hold
T     Right Hand Tap
L     Left Hand Tap

:)

            
            
Suggest correction
Creating personal tab
Creating personal tab
You can edit any tab online and save it as your Personal.

You can edit, replace or remove any tab part or add personal notes – all changes will be seen only by you.

Personal tabs can be accessed anytime from any device, even offline.
Learn more »
Give kudos to tab author, rate the tab!
1 2 3 4 5
comments
print report bad tab
guest
You may want to rate the tab now too:
select rating
Wanna post a correction for this tab? Suggest correction