Oops, an error
Loading. Please wait.

Understanding Love As Loss tab

version 1
version 1

Whole song

Interactive

136 views 1 this week
no commentswrite comment
1 2 3 4 5
3 more votes to show rating
add to favorites
×
Save as Personal and add changes to this tab that will be seen only by you. Learn more ›
×
You can save this tab as Personal to edit and correct it or add notes. All changes will be seen only by you. Learn more »
launch autoscroll
font size
0
reset
how to read this tab
guitar tuner
edit
Autoscroll
slow
fast
+/-
esc
set tempo
stop
{Understanding Love As Loss]
[Everything Was Sound]
[Silent Planet]

Tuning: Bb F Bb Eb G C
Playthrough: https://www.youtube.com/watch?v=a_OvuLADswM


[Riff 1, Guitar 1 & 2] - [00:00] - [00:23] - [x2]
- -----------------------------------------------------------------
- -----------------------------------------------------------------
- -14----------------------12--------------------------------------
- -------15----14--------------------------------------------------
- -----------------------------------------------------------------
- -----------------------------------------------------------------
-
- -----------------------------------------------------------------
- -15----------------------13--------------------------------------
- -------14----12--------------------------------------------------
- -----------------------------------------------------------------
- -----------------------------------------------------------------
- -----------------------------------------------------------------


- -------------------------12--------------------------------------
- -------13--------------------------------------------------------
- -15----------14--------------------------------------------------
- -----------------------------------------------------------------
- -----------------------------------------------------------------
- -----------------------------------------------------------------
-
- -------------------------20--------------------------------------
- -18----20----17--------------------------------------------------
- -----------------------------------------------------------------
- -----------------------------------------------------------------
- -----------------------------------------------------------------
- -----------------------------------------------------------------


[Riff 2a, Guitar 1 & 2] - [00:23] - [00:47] - [x2]
- -----------------------------------------------------------------
- ---6---------6---6---6---6---------6---6-6-6-6---8-8-8-8-8-8-8-8-
- -9---9-----9---9-9---9---9---------9---9-9-9-9---9-9-9-9-9-9-9-9-
- -7---------7-----7---7---7---------7---7-7-7-7---8-8-8-8-8-8-8-8-
- -----------------------------------------------------------------
- -------0-------------------0-------------------0-----------------
-
- -----------------------------------------------------------------
- -----3-----------------------------------------------------------
- ---3---------3---3---3---3---------3---3-3-3-3-------------------
- -7---------7---7-7---7---7---------7---7-7-7-7---5-5-5-5-5-5-5-5-
- -----------------5---5---5---------5---5-5-5-5---0-0-0-0-0-0-0-0-
- -------0-------------------0-------------------0-8-8-8-8-8-8-8-8-


- -------------------------------------------------------------------------
- ---6---------6---6---6---6---------6---6-6-6-6---8--8--8--8--8--8--8--8--
- -9---9-----9---9-9---9---9---------9---9-9-9-9---9--9--9--9--9--9--9--9--
- -7---------7-----7---7---7---------7---7-7-7-7---10-10-10-10-10-10-10-10-
- -------------------------------------------------------------------------
- -------0-------------------0-------------------0-------------------------
-
- -------------------------------------------------------------------------
- -----3-------------------------------------------------------------------
- ---3---------3---3---3---3---------3---3-3-3-3---------------------------
- -7---------7---7-7---7---7---------7---7-7-7-7---5--5--5--5--5--5--5--5--
- -----------------5---5---5---------5---5-5-5-5---3--3--3--3--3--3--3--3--
- -------0-------------------0-------------------0-7--7--7--7--7--7--7--7--


[Riff 2b, Guitar 1 & 2] - [00:23] - [00:53]
- -----------------------------------------------------------------
- -----------------------------------------------------------------
- -12b-------------------------------------------------------------
- -----------------------------------------------------------------
- -----------------------------------------------------------------
- -----------------------------------------------------------------
AP ...............................................................
- -----------------------------------------------------------------
- -----------------------------------------------------------------
- -12b-------------------------------------------------------------
- -----------------------------------------------------------------
- -----------------------------------------------------------------
- -----------------------------------------------------------------
AP ...............................................................


- -----------------------------------------------------------------
- -----------------------------------------------------------------
- ------------------------------------------------12pbr------------
- -----------------------------------------------------------------
- -----------------------------------------------------------------
- -----------------------------------------------------------------
AP ...............................................................
- -----------------------------------------------------------------
- -----------------------------------------------------------------
- ------------------------------------------------12pbr------------
- -----------------------------------------------------------------
- -----------------------------------------------------------------
- -----------------------------------------------------------------
AP ...............................................................


- -----------------------------------------------------------------
- -----------------------------------------------------------------
- -12b-------------------------------------------------------------
- -----------------------------------------------------------------
- -----------------------------------------------------------------
- -----------------------------------------------------------------
AP ...............................................................
- -----------------------------------------------------------------
- -13b-------------------------------------------------------------
- -----------------------------------------------------------------
- -----------------------------------------------------------------
- -----------------------------------------------------------------
- -----------------------------------------------------------------
AP ...............................................................


- -----------------------------------------------------------------
- ------------------------------------------------13pbr------------
- -----------------------------------------------------------------
- -----------------------------------------------------------------
- -----------------------------------------------------------------
- -----------------------------------------------------------------
AP ...............................................................
- -----------------------------------------------------------------
- -----------------------------------------------------------------
- ------------------------------------------------12pbr------------
- -----------------------------------------------------------------
- -----------------------------------------------------------------
- -----------------------------------------------------------------
AP ...............................................................


- -----------------------------------------------------------------
- -----------------------------------------------------------------
- -12b-------------------------------------------------------------
- -----------------------------------------------------------------
- -----------------------------------------------------------------
- -----------------------------------------------------------------
-
- -----------------------------------------------------------------
- -13b-------------------------------------------------------------
- -----------------------------------------------------------------
- -----------------------------------------------------------------
- -----------------------------------------------------------------
- -----------------------------------------------------------------


[Riff 3, Guitar 1 & 2] - [00:53] - [01:11]
- -----------------------------------------------------------------
- -18----------------------17--------------------------------------
- -----------------------------------------------------------------
- -------------15--------------------------------------------------
- -----------------------------------------------------------------
- -----------------------------------------------------------------
-
- -----------------------------------------------------------------
- -----------------------------------------------------------------
- -12--------------------------------------------------------------
- -----------------------------------------------------------------
- -----------------------------------------------------------------
- -----------------------------------------------------------------


- -----------------------------------------------------------------
- -----------------------------------------------------------------
- -14--------------------------------------------------------------
- -----------------------------------------------------------------
- -----------------------------------------------------------------
- -----------------------------------------------------------------
-
- -----------------------------------------------------------------
- -15----------------------13--------------------------------------
- -------------12--------------------------------------------------
- -----------------------------------------------------------------
- -----------------------------------------------------------------
- -----------------------------------------------------------------


- -------------------------12--------------------------------------
- -------13--------------------------------------------------------
- -15----------14--------------------------------------------------
- -----------------------------------------------------------------
- -----------------------------------------------------------------
- -----------------------------------------------------------------
-
- -------------------------20--------------------------------------
- -18----20----17--------------------------------------------------
- -----------------------------------------------------------------
- -----------------------------------------------------------------
- -----------------------------------------------------------------
- -----------------------------------------------------------------


[Riff 4a, Guitar 1 & 2] - [01:11] - [01:35]
- -----------------------------------------------------------------
- -------------5-----------3-3-3-3-3-3-3-3-3-3-3-3-3-3-3-3-3-3-3-3-
- -----3-------5-----------3-3-3-3-3-3-3-3-3-3-3-3-3-3-3-3-3-3-3-3-
- ---7---------8-----------7-7-7-7-7-7-7-7-7-7-7-7-7-7-7-7-7-7-7-7-
- -5-----------7-----------5-5-5-5-5-5-5-5-5-5-5-5-5-5-5-5-5-5-5-5-
- -------0-----------0---------------------------------------------
-
- -----------------------------------------------------------------
- -------------5-----------3-3-3-3-3-3-3-3-3-3-3-3-3-3-3-3-3-3-3-3-
- -----3-------5-----------3-3-3-3-3-3-3-3-3-3-3-3-3-3-3-3-3-3-3-3-
- ---7---------2-----------7-7-7-7-7-7-7-7-7-7-7-7-7-7-7-7-7-7-7-7-
- -5-----------3-----------5-5-5-5-5-5-5-5-5-5-5-5-5-5-5-5-5-5-5-5-
- -------0-----------0---------------------------------------------


- -------------------------3-3-3-3-3-3-3-3-3-3-3-3-3-3-3-3-3-3-3-3-
- -------------5-----------6-6-6-6-6-6-6-6-6-6-6-6-6-6-6-6-6-6-6-6-
- -----3-------5-----------3-3-3-3-3-3-3-3-3-3-3-3-3-3-3-3-3-3-3-3-
- ---7---------2-----------5-5-5-5-5-5-5-5-5-5-5-5-5-5-5-5-5-5-5-5-
- -5-----------3---------------------------------------------------
- -------0-----------0---------------------------------------------
-
- -----------------------------------------------------------------
- -------------5-----------3-3-3-3-3-3-3-3-3-3-3-3-3-3-3-3-3-3-3-3-
- -----3-------5-----------3-3-3-3-3-3-3-3-3-3-3-3-3-3-3-3-3-3-3-3-
- ---7---------8-----------7-7-7-7-7-7-7-7-7-7-7-7-7-7-7-7-7-7-7-7-
- -5-----------7-----------5-5-5-5-5-5-5-5-5-5-5-5-5-5-5-5-5-5-5-5-
- -------0-----------0---------------------------------------------


- -----------------------------------------------------------------
- -------------5-----------3-3-3-3-3-3-3-3-3-3-3-3-3-3-3-3-3-3-3-3-
- -----3-------5-----------3-3-3-3-3-3-3-3-3-3-3-3-3-3-3-3-3-3-3-3-
- ---7---------8-----------7-7-7-7-7-7-7-7-7-7-7-7-7-7-7-7-7-7-7-7-
- -5-----------7-----------5-5-5-5-5-5-5-5-5-5-5-5-5-5-5-5-5-5-5-5-
- -------0-----------0---------------------------------------------
-
- -------------------------3-3-3-3-3-3-3-3-3-3-3-3-3-3-3-3-3-3-3-3-
- -------------5-----------3-3-3-3-3-3-3-3-3-3-3-3-3-3-3-3-3-3-3-3-
- -----3-------5-----------5-5-5-5-5-5-5-5-5-5-5-5-5-5-5-5-5-5-5-5-
- ---7---------2-----------0-0-0-0-0-0-0-0-0-0-0-0-0-0-0-0-0-0-0-0-
- -5-----------3---------------------------------------------------
- -------0-----------0---------------------------------------------


- -------------------------3-3-3-3-3-3-3-3-3-3-3-3-3-3-3-3-3-3-3-3-
- -------------5-----------6-6-6-6-6-6-6-6-6-6-6-6-6-6-6-6-6-6-6-6-
- -----3-------5-----------3-3-3-3-3-3-3-3-3-3-3-3-3-3-3-3-3-3-3-3-
- ---7---------2-----------5-5-5-5-5-5-5-5-5-5-5-5-5-5-5-5-5-5-5-5-
- -5-----------3---------------------------------------------------
- -------0-----------0---------------------------------------------
-
- -----------------------------------------------------------------
- -------------5-----------3-3-3-3-3-3-3-3-3-3-3-3-----------------
- -----3-------5-----------3-3-3-3-3-3-3-3-3-3-3-3-3-3-3-3-3-3-3-3-
- ---7---------8-----------7-7-7-7-7-7-7-7-7-7-7-7-7-7-7-7-7-7-7-7-
- -5-----------7-----------5-5-5-5-5-5-5-5-5-5-5-5-----------------
- -------0-----------0---------------------------------------------


[Riff 4b] - [01:11] - [01:41]
- -------------------------12----------------------12b-------------
- -15----------13--------------------------------------------------
- -----------------------------------------------------------------
- -----------------------------------------------------------------
- -----------------------------------------------------------------
- -----------------------------------------------------------------
AP ...............................................................

- -----------------------------------------------------------------
- -15----------13--------------------------------------------------
- -------------------------14----------------------14b-------------
- -----------------------------------------------------------------
- -----------------------------------------------------------------
- -----------------------------------------------------------------
AP ...............................................................

- -------------------------12----------------------12b-------------
- -15----------13--------------------------------------------------
- -----------------------------------------------------------------
- -----------------------------------------------------------------
- -----------------------------------------------------------------
- -----------------------------------------------------------------
AP ...............................................................

- -----------------------------------------------------------------
- -15----------13--------------------------------------------------
- -------------------------14----------------------14b-------------
- -----------------------------------------------------------------
- -----------------------------------------------------------------
- -----------------------------------------------------------------
AP ...............................................................

- -----------------------------------------------------------------
- -----------------------------------------------------------------
- -14pbr-----------------------------------------------------------
- -----------------------------------------------------------------
- -----------------------------------------------------------------
- -----------------------------------------------------------------


[Riff 5, Guitar 1 & 2] - [01:41] - [01:47]
- -13----------------------12--------------------------------------
- -----------------------------------------------------------------
- -----------------------------------------------------------------
- -----------------------------------------------------------------
- -----------------------------------------------------------------
- -----------------------------------------------------------------
-
- -----------------------------------------------------------------
- -----------------------------------------------------------------
- -12--------------------------------------------------------------
- -----------------------------------------------------------------
- -----------------------------------------------------------------
- -----------------------------------------------------------------


[Riff 6a, Guitar 1 & 2] - [01:47] - [02:11]
- -----------------------------------------------------------------
- ---------------------------------------------------11----10---10-
- ------------------------------------------------------10---------
- --------------------------------------------3---/7----------8----
- -----------------5----------------------5/7---7------------------
- -0---------x-0h3---0--x-0----------------------------------------
-
- -----------------------------------------------------------------
- ---------------------------------------------------11----10---10-
- ------------------------------------------------------10---------
- --------------------------------------------3---/7----------8----
- -----------------5----------------------5/7---7------------------
- -0---------x-0h3---0--x-0----------------------------------------


- --------------------18-------------------------------------------
- -----------11----------------------------------------------------
- --------------14-------------------------------------------------
- -----------------11----------------------------------------------
- -----------------------------------------------------------------
- -0-----0---------------0-----0-----------------------------------
-
- --------------------18-------------------------------------------
- -----------11----------------------------------------------------
- --------------14-------------------------------------------------
- -----------------11----------------------------------------------
- -----------------------------------------------------------------
- -0-----0---------------0-----0-----------------------------------

                                                    T     L  L  T
- -----------------------------------------------------------15-21-
- ------------------------------------/10-----------------11-------
- ----------------------------------------7\3----------------------
- --------------------------------------------7-----17/19----------
- -----------------5----------------------------0h1----------------
- ---------0---0h3---0---x-0---------------------------------------
-                                                   T     L  L  T
- -----------------------------------------------------------15-21-
- ------------------------------------/10-----------------11-------
- ----------------------------------------7\3----------------------
- --------------------------------------------7-----17/19----------
- -----------------5----------------------------0h1----------------
- ---------0---0h3---0---x-0---------------------------------------


- --------------------18-------------------------------------------
- -----------11----------------------------------------------------
- --------------14-------------------------------------------------
- -----------------11----------------------------------------------
- -----------------------------------------------------------------
- -0-----0---------------0-----0-----------------0-----------------
-
- --------------------12-------------------------------------------
- -----------8-----------------------------------------------------
- --------------7--------------------------------------------------
- -----------------7-----------------------------------------------
- -----------------------------------------------------------------
- -0-----0---------------0-----0-----------------0-----------------


[Riff 6b, Guitar 1 & 2] - [01:47] - [02:11]
- -12------------------------------12b-------------r---------------
- -----------------------------------------------------------------
- -----------------------------------------------------------------
- -----------------------------------------------------------------
- -----------------------------------------------------------------
- -----------------------------------------------------------------
-
- -----------------------------------------------------------------
- -----------------------------------------------------------------
- -9-------------------------------9b--------------r---------------
- -----------------------------------------------------------------
- -----------------------------------------------------------------
- -----------------------------------------------------------------


- -12------------------------------12b-------------r---------------
- -----------------------------------------------------------------
- -----------------------------------------------------------------
- -----------------------------------------------------------------
- -----------------------------------------------------------------
- -----------------------------------------------------------------
-
- -----------------------------------------------------------------
- -----------------------------------------------------------------
- -9-------------------------------9b--------------r---------------
- -----------------------------------------------------------------
- -----------------------------------------------------------------
- -----------------------------------------------------------------


- /17---\10---/18------------------18b-----------------------------
- -----------------------------------------------------------------
- -----------------------------------------------------------------
- -----------------------------------------------------------------
- -----------------------------------------------------------------
- -----------------------------------------------------------------
-
- -----------------------------------------------------------------
- -----------------------------------------------------------------
- /14---\7----/15------------------15b-----------------------------
- -----------------------------------------------------------------
- -----------------------------------------------------------------
- -----------------------------------------------------------------


- /17---\10---/18------------------18b-----------------------------
- -----------------------------------------------------------------
- -----------------------------------------------------------------
- -----------------------------------------------------------------
- -----------------------------------------------------------------
- -----------------------------------------------------------------
-
- -----------------------------------------------------------------
- -----------------------------------------------------------------
- /14---\7----/15------------------15b-----------------------------
- -----------------------------------------------------------------
- -----------------------------------------------------------------
- -----------------------------------------------------------------


[Riff 7a, Guitar 1 & 2] - [02:11] - [02:35]
- -----------------------------------------------------------------
- -13--------------------------------------------------------------
- -----------------------------------------------------------------
- -----------------------------------------------------------------
- -----------------------------------------------------------------
- -----------------------------------------------------------------
AP ...............................................................
- -----------------------------------------------------------------
- -----------------------------------------------------------------
- -12--------------------------------------------------------------
- -----------------------------------------------------------------
- -----------------------------------------------------------------
- -----------------------------------------------------------------
AP ...............................................................

- -----------------------------------------------------------------
- -15--------------------------------------------------------------
- -----------------------------------------------------------------
- -----------------------------------------------------------------
- -----------------------------------------------------------------
- -----------------------------------------------------------------
AP ...............................................................
- -----------------------------------------------------------------
- -----------------------------------------------------------------
- -12--------------------------------------------------------------
- -----------------------------------------------------------------
- -----------------------------------------------------------------
- -----------------------------------------------------------------
AP ...............................................................

- -----------------------------------------------------------------
- -13--------------------------------------------------------------
- -----------------------------------------------------------------
- -----------------------------------------------------------------
- -----------------------------------------------------------------
- -----------------------------------------------------------------
AP ...............................................................
- -----------------------------------------------------------------
- -13--------------------------------------------------------------
- -----------------------------------------------------------------
- -----------------------------------------------------------------
- -----------------------------------------------------------------
- -----------------------------------------------------------------
AP ...............................................................

- -----------------------------------------------------------------
- -15--------------------------------------------------------------
- -----------------------------------------------------------------
- -----------------------------------------------------------------
- -----------------------------------------------------------------
- -----------------------------------------------------------------
AP ...............................................................
- -----------------------------------------------------------------
- -13--------------------------------------------------------------
- -----------------------------------------------------------------
- -----------------------------------------------------------------
- -----------------------------------------------------------------
- -----------------------------------------------------------------
AP ...............................................................


[Riff 7b] - [02:11] - [02:35] - [x4]
- -----------------------------------------------------------------
- -18---\10---/17--------------------------------------------------
- -x-----x-----x---------------------------------------------------
- -15---\7----/14--------------------------------------------------
- -----------------------------------------------------------------
- -----------------------------------------------------------------

[Riff 1, Guitar 1 & 2] - [02:23] - [02:35]


[Riff 8a, Guitar 1 & 2] - [02:35] - [02:59]
- -----------------------------------------------------------------
- -------------5-----------3-3-3-3-3-3-3-3-3-3-3-3-3-3-3-3-3-3-3-3-
- -----3-------5-----------3-3-3-3-3-3-3-3-3-3-3-3-3-3-3-3-3-3-3-3-
- ---7---------8-----------7-7-7-7-7-7-7-7-7-7-7-7-7-7-7-7-7-7-7-7-
- -5-----------7-----------5-5-5-5-5-5-5-5-5-5-5-5-5-5-5-5-5-5-5-5-
- -------0-----------0---------------------------------------------
-
- -----------------------------------------------------------------
- -------------5-----------3-3-3-3-3-3-3-3-3-3-3-3-3-3-3-3-3-3-3-3-
- -----3-------5-----------3-3-3-3-3-3-3-3-3-3-3-3-3-3-3-3-3-3-3-3-
- ---7---------2-----------7-7-7-7-7-7-7-7-7-7-7-7-7-7-7-7-7-7-7-7-
- -5-----------3-----------5-5-5-5-5-5-5-5-5-5-5-5-5-5-5-5-5-5-5-5-
- -------0-----------0---------------------------------------------


- -------------------------3-3-3-3-3-3-3-3-3-3-3-3-3-3-3-3-3-3-3-3-
- -------------5-----------6-6-6-6-6-6-6-6-6-6-6-6-6-6-6-6-6-6-6-6-
- -----3-------5-----------3-3-3-3-3-3-3-3-3-3-3-3-3-3-3-3-3-3-3-3-
- ---7---------2-----------5-5-5-5-5-5-5-5-5-5-5-5-5-5-5-5-5-5-5-5-
- -5-----------3---------------------------------------------------
- -------0-----------0---------------------------------------------
-
- -----------------------------------------------------------------
- -------------5-----------3-3-3-3-3-3-3-3-3-3-3-3-3-3-3-3-3-3-3-3-
- -----3-------5-----------3-3-3-3-3-3-3-3-3-3-3-3-3-3-3-3-3-3-3-3-
- ---7---------8-----------7-7-7-7-7-7-7-7-7-7-7-7-7-7-7-7-7-7-7-7-
- -5-----------7-----------5-5-5-5-5-5-5-5-5-5-5-5-5-5-5-5-5-5-5-5-
- -------0-----------0---------------------------------------------


- -----------------------------------------------------------------
- -------------5-----------3-3-3-3-3-3-3-3-3-3-3-3-3-3-3-3-3-3-3-3-
- -----3-------5-----------3-3-3-3-3-3-3-3-3-3-3-3-3-3-3-3-3-3-3-3-
- ---7---------8-----------7-7-7-7-7-7-7-7-7-7-7-7-7-7-7-7-7-7-7-7-
- -5-----------7-----------5-5-5-5-5-5-5-5-5-5-5-5-5-5-5-5-5-5-5-5-
- -------0-----------0---------------------------------------------
-
- -------------------------3-3-3-3-3-3-3-3-3-3-3-3-3-3-3-3-3-3-3-3-
- -------------5-----------3-3-3-3-3-3-3-3-3-3-3-3-3-3-3-3-3-3-3-3-
- -----3-------5-----------5-5-5-5-5-5-5-5-5-5-5-5-5-5-5-5-5-5-5-5-
- ---7---------2-----------0-0-0-0-0-0-0-0-0-0-0-0-0-0-0-0-0-0-0-0-
- -5-----------3---------------------------------------------------
- -------0-----------0---------------------------------------------


- -------------------------3---------------------------------------
- -------------5-----------6-----------------------8-8-8-8-8-8-----
- -----3-------5-----------3-----------------------9-9-9-9-9-9-----
- ---7---------2-----------5-----------------------8-8-8-8-8-8-----
- -5-----------3---------------------------------------------------
- -------0-----------0---------------------------------------------
-
- -----------------------------------------------------------------
- -------------5-----------3---------------------------------------
- -----3-------5-----------3---------------------------------------
- ---7---------8-----------7-----------------------5-5-5-5-5-5-----
- -5-----------7-----------5-----------------------0-0-0-0-0-0-----
- -------0-----------0-----------------------------8-8-8-8-8-8-----


[Riff 8b] - [02:35] - [02:59] - [x2]
- -------------------------12----------------------12b-------------
- -15----------13--------------------------------------------------
- -----------------------------------------------------------------
- -----------------------------------------------------------------
- -----------------------------------------------------------------
- -----------------------------------------------------------------
AP ...............................................................

- -----------------------------------------------------------------
- -15----------13--------------------------------------------------
- -------------------------14----------------------14b-------------
- -----------------------------------------------------------------
- -----------------------------------------------------------------
- -----------------------------------------------------------------
AP ...............................................................


[Riff 9, Guitar 1 & 2] - [02:59] - [03:23]
- -----------------------------------------------------------------
- -6-6-6-6-6-6-6-6-6-6-6-6-6-6-6-6-6-6-6-6-6-6-6-6-6-6-6-6-6-6-6-6-
- -9-9-9-9-9-9-9-9-9-9-9-9-9-9-9-9-9-9-9-9-9-9-9-9-9-9-9-9-9-9-9-9-
- -7-7-7-7-7-7-7-7-7-7-7-7-7-7-7-7-8-8-8-8-8-8-8-8-8-8-8-8-8-8-8-8-
- -----------------------------------------------------------------
- -----------------------------------------------------------------
-
- -----------------------------------------------------------------
- -----------------------------------------------------------------
- -3-3-3-3-3-3-3-3-3-3-3-3-3-3-3-3-3-3-3-3-3-3-3-3-3-3-3-3-3-3-3-3-
- -7-7-7-7-7-7-7-7-7-7-7-7-7-7-7-7-7-7-7-7-7-7-7-7-7-7-7-7-7-7-7-7-
- -5-5-5-5-5-5-5-5-5-5-5-5-5-5-5-5-5-5-5-5-5-5-5-5-5-5-5-5-5-5-5-5-
- -----------------------------------------------------------------


- -------------------------------------------------------------------------------------------------
- -8--8--8--8--8--8--8--8--8--8--8--8--8--8--8--8--10-10-10-10-10-10-10-10-10-10-10-10-10-10-10-10-
- -9--9--9--9--9--9--9--9--9--9--9--9--9--9--9--9--10-10-10-10-10-10-10-10-10-10-10-10-10-10-10-10-
- -11-11-11-11-11-11-11-11-11-11-11-11-11-11-11-11-12-12-12-12-12-12-12-12-12-12-12-12-12-12-12-12-
- -------------------------------------------------------------------------------------------------
- -------------------------------------------------------------------------------------------------
-
- -------------------------------------------------------------------------------------------------
- -------------------------------------------------6--6--6--6--6--6--6--6--6--6--6--6--6--6--6--6--
- -6--6--6--6--6--6--6--6--6--6--6--6--6--6--6--6--7--7--7--7--7--7--7--7--7--7--7--7--7--7--7--7--
- -2--2--2--2--2--2--2--2--2--2--2--2--2--2--2--2--0--0--0--0--0--0--0--0--0--0--0--0--0--0--0--0--
- -4--4--4--4--4--4--4--4--4--4--4--4--4--4--4--4--------------------------------------------------
- -------------------------------------------------------------------------------------------------


- -----------------------------------------------------------------
- -6-6-6-6-6-6-6-6-6-6-6-6-6-6-6-6-6-6-6-6-6-6-6-6-6-6-6-6-6-6-6-6-
- -9-9-9-9-9-9-9-9-9-9-9-9-9-9-9-9-9-9-9-9-9-9-9-9-9-9-9-9-9-9-9-9-
- -7-7-7-7-7-7-7-7-7-7-7-7-7-7-7-7-8-8-8-8-8-8-8-8-8-8-8-8-8-8-8-8-
- -----------------------------------------------------------------
- -----------------------------------------------------------------
-
- -----------------------------------------------------------------
- -----------------------------------------------------------------
- -3-3-3-3-3-3-3-3-3-3-3-3-3-3-3-3-3-3-3-3-3-3-3-3-3-3-3-3-3-3-3-3-
- -7-7-7-7-7-7-7-7-7-7-7-7-7-7-7-7-7-7-7-7-7-7-7-7-7-7-7-7-7-7-7-7-
- -5-5-5-5-5-5-5-5-5-5-5-5-5-5-5-5-5-5-5-5-5-5-5-5-5-5-5-5-5-5-5-5-
- -----------------------------------------------------------------


- -------------------------------------------------------------------------------------------------
- -8--8--8--8--8--8--8--8--8--8--8--8--8--8--8--8--10-10-10-10-10-10-10-10-10-10-10-10-10-10-10-10-
- -9--9--9--9--9--9--9--9--9--9--9--9--9--9--9--9--0--0--0--0--0--0--0--0--0--0--0--0--0--0--0--0--
- -11-11-11-11-11-11-11-11-11-11-11-11-11-11-11-11-12-12-12-12-12-12-12-12-12-12-12-12-12-12-12-12-
- -------------------------------------------------------------------------------------------------
- -------------------------------------------------------------------------------------------------
-
- -------------------------------------------------------------------------------------------------
- -------------------------------------------------6--6--6--6--6--6--6--6--6--6--6--6--6--6--6--6--
- -6--6--6--6--6--6--6--6--6--6--6--6--6--6--6--6--7--7--7--7--7--7--7--7--7--7--7--7--7--7--7--7--
- -2--2--2--2--2--2--2--2--2--2--2--2--2--2--2--2--0--0--0--0--0--0--0--0--0--0--0--0--0--0--0--0--
- -4--4--4--4--4--4--4--4--4--4--4--4--4--4--4--4--------------------------------------------------
- -------------------------------------------------------------------------------------------------

[Symbols]

PM... Palm Mute notes with (...) under them
AP... Alternate Pick notes with (...) under them
h     Hammer On
p     Pull Off
[ ]   Harmonic
/     Slide Up
\     Slide Down
x     Dead Note
b     Bend
hb    Hold Bend
pb    Pre-Bend
r     Release Bend
(x )  Play Notes x amount of times
~     Let Ring
\\\   Pick Slide Down
///   Pick Slide Up
/ 3 \ Notes are triplets (3 notes in the space of two)
w\    Whammy Bar Down
w/    Whammy Bar Up
wh    Whammy Bar Hold
T     Right Hand Tap
L     Left Hand Tap

:)

            
            
Suggest correction
Creating personal tab
Creating personal tab
You can edit any tab online and save it as your Personal.

You can edit, replace or remove any tab part or add personal notes – all changes will be seen only by you.

Personal tabs can be accessed anytime from any device, even offline.
Learn more »
Give kudos to tab author, rate the tab!
1 2 3 4 5
comments
print report bad tab
guest
You may want to rate the tab now too:
select rating
Wanna post a correction for this tab? Suggest correction