Oops, an error
Loading. Please wait.

Ikaw Lamang bass

version 2
version 2

Whole song

583 views 21 this week
no commentswrite comment
1 2 3 4 5
3 more votes to show rating
add to favorites
×
Save as Personal and add changes to this tab that will be seen only by you. Learn more ›
×
You can save this tab as Personal to edit and correct it or add notes. All changes will be seen only by you. Learn more »
launch autoscroll
font size
0
reset
guitar tuner
edit
Autoscroll
slow
fast
+/-
esc
set tempo
stop
Author
-------------------------------------------------------------------------------
                         IKAW LAMANG - SILENT SANCTUARY
-------------------------------------------------------------------------------
Tabbed by:darwin abaigar tanchingco 
E-mail: tanchingco_darwin@yahoo.com

para sa mahal ku...
ito ay para kay_______

Tuning: Standard tunning E,A,D,G
 
INTRO (cello part)
G|---------------------------------------------------------------------------|
D|---------------------------------------------------------------------------|
A|---------------------------------------------------------------------------|
E|---------------------------------------------------------------------------|

VERSE 1
G|---------------------------------------------------------------------------|
D|---------------------------------------------------------------------------|
A|---------------------------------------------------------------------------|
E|---------------------------------------------------------------------------|

G|---------------------------------------------------------------------------|
D|---------------------------------------------------------------------------|
A|---------------------------------------------------------------------------|
E|---------------------------------------------------------------------------|

RERFAIN

Sa lahat ng aking ginagawa, ikaw lamang ang nasa isip ko sinta... 
G|---------------------------------------------------------------------------|
D|-------------------------------------7---7---7-7--------11-9-----11-9------|
A|-----5---5--5-5----5---5--5-5-5-5---------------------9--------9-----------|
E|---------------------------------------------------------------------------|

G|---------------------------------------------------------------------------|
D|-------------------------------------7---7---7-7--------11-9-----11-9------|
A|-----5---5--5-5----5---5--5-5-5-5---------------------9--------9-----------|
E|---------------------------------------------------------------------------|

Sana'y di na tayo magkahiwalay,kahit kailan pa man
G|---------------------------------------------------------------------------|
D|---------------------------------------------------------------------------|
A|---------------------------------------------------------------------------|
E|----1-1-1-1-1-1-1-1-1-1-1-1-1-1-1-1---0-0-0-0-0-0-0-0-0-0-0-0-0-0-0-0------|

G|---------------------------------------------------------------------------|
D|---------------------------------------------------------------------------|
A|---------------------------------------------------------------------------|
E|----1-1-1-1-1-1-1-1-1-1-1-1-1-1-1-1----0---0---0-0----0---0---0-0-0-0------|

CHORUS
Ikaw lamang ang aking minamahal, ikaw lamang ang tangi kong inaasam...
G|---------------------------------------------------------------------------|
D|---------------------------------------------------------------------------|
A|---------------------------------------9---9---9-9----9---9---9-9-9-9------|
E|-----5---5---5-5----5---5---5-5-5-5----------------------------------------|

G|---------------------------------------------------------------------------|
D|---------------------------------------------------------------------------|
A|---------------------------------------9---9---9-9----9---9---9-9-9-9------|
E|-----5---5---5-5----5---5---5-5-5-5----------------------------------------|


Makapiling ka habang buhay ikaw lamang sinta...
G|---------------------------------------------------------------------------|
D|----------------0-7---------------------------------------------------------|
A|---5---5---5-5--------------------------------9---9---9-9-9-9---------------|
E|---------------------------5---5---5-5--------------------------------------|

Wala na kong hihingin pa. wala na.......
G|--------------------------------------------------------------------------------------|
D|----------------0-7-----------------------------------------------------------0-7-----|
A|---5---5---5-5------------------------------9---9---9-9-9-9------5---5---5-5----------|
E|----------------------------5---5---5-5-----------------------------------------------|


INTERLUDE
G|---------------------------------------------------------------------------|
D|---------------------------------------------------------------------------|
A|---------------------------------------------------------------------------|
E|-----5-5-5-5-5-5-5-5-5-5-5-5-5-5-5-5----2-2-2-2-2-2-2-2-2-2-2-2-2-2-2-2----|

G|---------------------------------------------------------------------------|
D|---------------------------------------------------------------------------|
A|---------------------------------------------------------------------------|
E|-----5-5-5-5-5-5-5-5-5-5-5-5-5-5-5-5----2-2-2-2-2-2-2-2-2-2-2-2-2-2-2-2----|

VERSE 2

Ayoko nang maulit pa, ang nakaraang ayokong maalala...
G|---------------------------------------------------------------------------|
D|---------------------------------------------------------------------------|
A|---------------------------------------------------------------------------|
E|-------5~-------------------------------2---2---2-2----2---2---2-2-2-2-----|

G|---------------------------------------------------------------------------|
D|---------------------------------------------------------------------------|
A|---------------------------------------------------------------------------|
E|----5---5---5-5----5---5---5-5-5-5------2---2---2-2----2---2----2-2-2-2----|

G|---------------------------------------------------------------------------|
D|---------------------------------------------------------------------------|
A|---------------------------------------------------------------------------|
E|----5---5---5-5----5---5---5-5-5-5------2---2---2-2----2---2----2-2-2-2----|

G|---------------------------------------------------------------------------|
D|---------------------------------------------------------------------------|
A|---------------------------------------------------------------------------|
E|----5---5---5-5----5---5---5-5-5-5------2---2---2-2----2---2----2-2-2-2----|

(REPEAT REFRAIN AND THEN CHORUS)

ADLIB
G|---------------------------------------------------------------------------|
D|---------------------------------------------------------------------------|
A|---------------------------------------------------------------------------|
E|---1-1-1-1-1-1-1-1-1-1-1-1-1-1-1-1-----0-0-0-0-0-0-0-0-0-0-0-0-0-0-0-0-----|

G|---------------------------------------------------------------------------|
D|---------------------------------------------------------------------------|
A|---------------------------------------------------------------------------|
E|---1-1-1-1-1-1-1-1-1-1-1-1-1-1-1-1-----0-0-0-0-0-0-0-0-0-0-0-0-0-0-0-0-----|

G|---------------------------------------------------------------------------|
D|---------------------------------------------------------------------------|
A|---------------------------------------------------------------------------|
E|-----1---1---1-1----1---1---1-1-1-1-----0---0---0-0----0---0---0-0-0-0-----|

G|---------------------------------------------------------------------------|
D|---------------------------------------------------------------------------|
A|---------------------------------------------------------------------------|
E|-----1---1---1-1----1---1---1-1-1-1-----0---0---0-0----0---0---0-0-0-0-----|

(REPEAT CHORUS)




| /  slide up
| \  slide down
| h  hammer-on
| p  pull-off
| ~  vibrato
| +  harmonic
| x  Mute note
===============================================================================

            
            
Suggest correction
Creating personal tab
Creating personal tab
You can edit any tab online and save it as your Personal.

You can edit, replace or remove any tab part or add personal notes – all changes will be seen only by you.

Personal tabs can be accessed anytime from any device, even offline.
Learn more »
Give kudos to tab author, rate the tab!
1 2 3 4 5
comments
print report bad tab
guest
You may want to rate the tab now too:
select rating
Wanna post a correction for this tab? Suggest correction