Oops, an error
Loading. Please wait.

Ikaw Lamang bass

version 3
version 3

Whole song

868 views 36 this week
no commentswrite comment
1 2 3 4 5
3 more votes to show rating
add to favorites
×
Save as Personal and add changes to this tab that will be seen only by you. Learn more ›
×
You can save this tab as Personal to edit and correct it or add notes. All changes will be seen only by you. Learn more »
launch autoscroll
font size
0
reset
guitar tuner
edit
Autoscroll
slow
fast
+/-
esc
set tempo
stop
Author
Difficulty
IKAW LAMANG
silent sanctuary


for my special someone


Tunning. Standard tunning E,A,D,G



INTRO (Cello part)
G|---------------------------------------------------------------|
D|---------------------------------------------------------------|
A|---------------------------------------------------------------|
E|---------------------------------------------------------------|

VERSE 1
G|---------------------------------------------------------------|
D|---------------------------------------------------------------|
A|---------------------------------------------------------------|
E|---------------------------------------------------------------|

REFRAIN
Sa lahat ng aking ginagawa,ikaw lamang ang nasa isip ko sinta
Sana’y hindi na tayo magkahiwalay,kahit kalian pa man
G|---------------------------------------------------------------|
D|-------------------------------7--7--6---------11-12----11-12--|
A|--5--5--5-5---5--5--5-5-5-5------------7-----9--------9--------|
E|---------------------------------------------------------------|

G|---------------------------------------------------------------|
D|-------------------------------7--7--6---------11-12----11-12--|
A|--5--5--5-5---5--5--5-5-5-5------------7-----9--------9--------|
E|---------------------------------------------------------------|

G|----------------------------------------------------------------|
D|----------------------------------------------------------------|
A|----------------------------------------------------------------|
E|-1-1-1-1-1-1-1-1-1-1-1-1-1-1-1-1--0-0-0-0-0-0-0-0-0-0-0-0-0-0-0-|

G|---------------------------------------------------------------|
D|---------------------------------------------------------------|
A|-----------------------------------------------7--7--7-7-7-7---|
E|--1-1-1-1-1-1-1-1-1-1-1-1-1-1-1-1---0--0--0-0------------------|

CHORUS 1
Ikaw lamang ang aking minamahal,ikaw lamang ang tangi kong inaasam
Makapiling ka habang buhay ikaw lamang sinta,wala na kong hihingin
Pa,wala 
G|---------------------------------------------------------------|
D|---------------------------------------------------------------|
A|---------------------------------9--9--9-9---9--9--9-9-9-9-----|
E|---5--5--5-5---5--5--5-5-5-5-----------------------------------|

G|---------------------------------------------------------------|
D|---------------------------------------------------------------|
A|---------------------------------9--9--9-9---9--9--9-9-9-9-----|
E|---5--5--5-5---5--5--5-5-5-5-----------------------------------|



G|-----------------------------------------------------|
D|-------------0-7-------------------------------------|
A|--5--5--5-5-------------------------9--9--9-9-9-9----|
E|-----------------------5--5--5-5---------------------|

G|--------------------------------------------------------------|
D|-------------0-7------------------------------------------0-7-|
A|--5--5--5-5--------------------9--9--9-9-9-9---5--5--5-5------|
E|-------------------5--5--5-5----------------------------------|

INTERLUDE

G|---------------------------------------------------------------|
D|-------7----9-7-6-7-6-7-6-------11--9-11-9-----11--9-11-9------|
A|--0--7---7------------------9--------------9--------------9----|
E|---------------------------------------------------------------|

G|---------------------------------------------------------------|
D|-------7----9-7-6-7-6-7-6-------11--9-11-9-----11--9-11-9------|
A|--0--7---7------------------9--------------9--------------9----|
E|---------------------------------------------------------------|

VERSE 2
Ayoko nang maulit pa ang nakaraang ayokong maalala
Bawat oras na wala ka ay parang mabigat na parusa
Wag na wag mong kakalimutan di ka nagiisa
Di ako titigil magmahal sayo sinta…
G|----------------------------------------------------------|
D|----------------------------------------------------------|
A|----------------------------------------------------------|
E|--5~--------------------------2--2--2-2---2--2--2-2-2-2---|

G|-----------------------------------------------------------|
D|-----------------------------------------------------------|
A|-----------------------------------------------------------|
E|---5--5--5-5---5--5--5-5-5-5---2--2--2-2---2--2--2-2-2-2---|

G|-----------------------------------------------------------|
D|-----------------------------------------------------------|
A|-----------------------------------------------------------|
E|---5--5--5-5---5--5--5-5-5-5---2--2--2-2---2--2--2-2-2-2---|

G|-----------------------------------------------------------|
D|-----------------------------------------------------------|
A|-----------------------------------------------------------|
E|---5--5--5-5---5--5--5-5-5-5---2--2--2-2---2--2--2-2-2-2---|

(REPEAT REFRAIN AND THEN CHORUS)

BRIDGE
G|----------------------------------------------------------------|
D|----------------------------------------------------------------|
A|----------------------------------------------------------------|
E|-1-1-1-1-1-1-1-1-1-1-1-1-1-1-1-1--0-0-0-0-0-0-0-0-0-0-0-0-0-0-0-|

G|----------------------------------------------------------------|
D|----------------------------------------------------------------|
A|----------------------------------------------------------------|
E|-1-1-1-1-1-1-1-1-1-1-1-1-1-1-1-1--0-0-0-0-0-0-0-0-0-0-0-0-0-0-0-|


G|-------------------------------------------------------------|
D|-------------------------------------------------------------|
A|----3----3----------3----3---3----7--7--7-7---7--7--7-7-7-7--|
E|-1----1-----1----1----1----1---------------------------------|

G|------------------------------------------------------------|
D|------------------------------------------------------------|
A|----3---3-----3--5--3--5--3--5---7--7--7-7---7--7--7-7-7-7--|
E|-1----1----1------------------------------------------------|

REPEAT CHORUS 1






END------


            
            
Suggest correction
Creating personal tab
Creating personal tab
You can edit any tab online and save it as your Personal.

You can edit, replace or remove any tab part or add personal notes – all changes will be seen only by you.

Personal tabs can be accessed anytime from any device, even offline.
Learn more »
Give kudos to tab author, rate the tab!
1 2 3 4 5
comments
print report bad tab
guest
You may want to rate the tab now too:
select rating
Wanna post a correction for this tab? Suggest correction