Oops, an error
Loading. Please wait.

Abuse Me tab

version 3
version 3

Whole song

Interactive

396 views 3 this week
no commentswrite comment
1 2 3 4 5
3 more votes to show rating
add to favorites
×
Save as Personal and add changes to this tab that will be seen only by you. Learn more ›
×
You can save this tab as Personal to edit and correct it or add notes. All changes will be seen only by you. Learn more »
launch autoscroll
font size
0
reset
how to read this tab
guitar tuner
edit
Autoscroll
slow
fast
+/-
esc
set tempo
stop
-------------------------------------------------------------------------------
                             Abuse Me - Silverchair
-------------------------------------------------------------------------------
Tabbed by: Jake M
E-mail: jakemorash314@verizon.net

Tuning: Drop D
 This tab is different from the other tabs because there are lots of variations in the verse, and there is a 
riff that he plays in concert which sounds really cool and I like.  I didn't put the solo in here because I
 don't know it. Overall, this is different from all the other tabs.
 
  Intro:
e|----------------------------------------------------------------------------------------------------------|
B|----------------------------------------------------------------------------------------------------------|
G|---------6-------------6----------------2-0------------2-----------6--6-0------------6----------2-2-0-----|
D|-----0-----0-------0-----0----------0--------------0-----0----------------------0-------------------------|
A|---7---7-----7---7---7-----7------3---3------3---3---3-----3-----7--------7---7---7-----7-----3--------3--|
D|-7-------------7-------------7\3---------------3-------------3/7------------7-------------7\3------------3|

  Verse:
e|-0-0-0-0-0-0~--0-0-0-0-0-0----------|
B|-0-0-0-0-0-0~--0-0-0-0-0-0----------| Repeat
G|-2-2-2-2/4-4~--2-2-2-2/4-4----------|
D|-0-0-0-0-0-0~--0-0-0-0-0-0----------|
A|-3-3-3-3/5-5~--3-3-3-3/5-5----------|
D|-3-3-3-3/5-5~--3-3-3-3/5-5----------|
  Need to ask a question...
  Calling out my name...
  Nothing seems to bother...
  Wish I had a clue...

  Chorus:                   
e|-0-0-0-0/-0------0---------|
B|-0-0-0-0/-0------0---------| x2 for first chorus
G|-4-4-4-4/-6------2---------| x4 for second chorus
D|-0-0-0-0/-0------0---------|
A|-5-5-5-5/-7------3---------|
D|-5-5-5-5/-7-x12--3-x13-----|

 End of chorus 1:  End of chorus 2: (As distortion kicks in)
e|-0~-------------|-0~--0-0-0-0-0-0-0-0-0--------------|
B|-0~-------------|-0~--0-0-0-0-0-0-0-0-0--------------|
G|-1~-------------|-1~--1-1-1-1-1-1-1-1-1--------------|
D|-0~-------------|-0~--0-0-0-0-0-0-0-0-0--------------|
A|-2~-------------|-2~--2-2-2-2-2-2-2-2-2--------------|
D|-2~-------------|-2~--2-2-2-2-2-2-2-2-2--------------|

  Bridge:
e|-----------------------------------------------------------------------------------------------------|
B|-----------------------------------------------------------------------------------------------------| 
G|-2-2-2-2--5-5-------11-11-11-11-12-12-12-12-14-14-14-14--2-2-2-2--5-5-------5-5-7-7-9-9-7-7----------|
D|-2-2-2-2--5-5--0-0--x--x--x--x--x--x--x--x--x--x--x--x---2-2-2-2--5-5--0-0--x-x-x-x-x-x-x-x----------|
A|-0-0-0-0--3-3--0-0--9--9--9--9--10-10-10-10-12-12-12-12--0-0-0-0--3-3--0-0--3-3-5-5-7-7-5-5----------|
D|----------3-3--0-0------------------------------------------------3-3--0-0---------------------------|
  Throw the sailors overboard!

  Interlude in between bridges:
e|----------0-0-0-0-0-0-----------------0-0-0-0-0-0-----------------|
B|----------0-0-0-0-0-0-----------------0-0-0-0-0-0-----------------| Repeat
G|----------6-6-6-6-6-6-6-0-0-----------2-2-2-2-2-2-2-0-0-----------|
D|-----0----0-0-0-0-0-0------------0----0-0-0-0-0-0-----------------|
A|---7---7--7-7-7-7-7-7----------3---3--3-3-3-3-3-3-----------------|
D|-7--------7-7-7-7-7-7--------3--------3-3-3-3-3-3-----------------|


Thanks and enjoy :)

            
            
Suggest correction
Creating personal tab
Creating personal tab
You can edit any tab online and save it as your Personal.

You can edit, replace or remove any tab part or add personal notes – all changes will be seen only by you.

Personal tabs can be accessed anytime from any device, even offline.
Learn more »
Give kudos to tab author, rate the tab!
1 2 3 4 5
comments
print report bad tab
guest
Wanna post a correction for this tab? Suggest correction