Oops, an error
Loading. Please wait.

Anthem For The Year 2000 bass

version 1
version 1

Whole song

4,048 views 3 this week
1 commentread comment
1 2 3 4 5
x 6
add to favorites
×
Save as Personal and add changes to this tab that will be seen only by you. Learn more ›
×
You can save this tab as Personal to edit and correct it or add notes. All changes will be seen only by you. Learn more »
launch autoscroll
font size
0
reset
guitar tuner
backing track
0:00
0:00
edit
Autoscroll
slow
fast
+/-
esc
set tempo
stop
Author
Silverchair
Anthem For The Year 2000
Tabber: Craig Palmer

This is my first tab and I think its right it sounds good to me, please rate it

Drop D tuning

Verse:
G ----------------------------------------l
D ----------------------------------------l
A ----------------------------3-----------l
D -7-7-5-7-5-----2-3-3---0-0--------------l

Bridge
G ----------------------------------------l
D ----------------------------------------l
A ------------------------3---------------l
D -7-7------------------0-0---------------l

Change of verse
G ----------------------------------------l
D ----------------------------------------l
A ----------------------------3-----------l
D -7-7-5-7-5-----2-3-3---0-0-5------------l

Enjoy…

            
            
Suggest correction
Creating personal tab
Creating personal tab
You can edit any tab online and save it as your Personal.

You can edit, replace or remove any tab part or add personal notes – all changes will be seen only by you.

Personal tabs can be accessed anytime from any device, even offline.
Learn more »
comments
print report bad tab
1 comment total.
0 reply
palmer_1987 50 Jun 04, 2003 08:00 PM

hi i made a mistake its actually

verse
G---------------------------
D---------------------------
A-----------------------0---
E-7-7-7-5-7-5-----2-3-3--3-3

guest
You may want to rate the tab now too:
select rating
Wanna post a correction for this tab? Suggest correction