Oops, an error
Loading. Please wait.
50,594 views 108 this week
8 commentsread comments
1 2 3 4 5
x 28
add to favorites
×
Save as Personal and add changes to this tab that will be seen only by you. Learn more ›
×
You can save this tab as Personal to edit and correct it or add notes. All changes will be seen only by you. Learn more »
launch autoscroll
font size
0
reset
how to read this tab
guitar tuner
backing track
0:00
0:00
edit
Autoscroll
slow
fast
+/-
esc
set tempo
stop
[Intro]

E|--------------------------------------------------|
B|--------------------------------------------------|
G|--3-----3-3---3--3--3-----------------------------|
D|--2---0-2-2---2--2--2--0-0-0----------------------|
A|--2---0-2-2---2--2--2--0-0-0----------------------|
D|--2---0-2-2---2--2--2--0-0-0----------------------|(x2)


[Verse]

E|-----------------------------------------------------|
B|-----------------------------------------------------|
G|-----------------------------------------------------|
D|--2---0-2-2---2--2--2--0-0-0-------------------------|
A|--2---0-2-2---2--2--2—-0-0-0-------------------------|
D|--2---0-2-2---2--2--2--0-0-0-------------------------|(x6)


[Chorus]

E|-----------------------------------------------------|
B|-----------------------------------------------------|
G|-----------------------------------------------------|
D|--0--3/4-4---0--0-3/4-4---0--3/4-4---0--0-3/4—-4h6---|
A|--0--3/4-4---0--0-3/4-4---0--3/4-4---0--0-3/4—-4h6---|
D|--0--3/4-4---0--0-3/4-4---0--3/4-4---0--0-3/4—-4h6---|

E|-----------------------------------------------------|
B|-----------------------------------------------------|
G|-----------------------------------------------------|
D|--0--3/4-4---0--0-3/4-4---0--3/4-4---0--0-3/4—4------|
A|--0--3/4-4---0--0-3/4-4---0--3/4-4---0--0-3/4—4------|
D|--0--3/4-4---0--0-3/4-4---0--3/4-4---0--0-3/4—4------|


[Fill 1] 
(Play with reverb/chorus effects)

E|--0-----------------------------------------------|
B|--0-----------------------------------------------|
G|--2-----------------------------------------------|
D|--3-----------------------------------------------|
A|--3-----------------------------------------------|
D|--3-----------------------------------------------|
  (let ring)
“if only i could be as cool as you…”


[Fill 2]

E|--------------------------------------------------|
B|--------------------------------------------------|
G|--------------------------------------------------|
D|--2--0-2-2---2--2--0-2/3-3-0----------------------|
A|--2--0-2-2---2--2--0-2/3-3-0----------------------|
D|--2--0-2-2---2--2--0-2/3-3-0----------------------|(x2)
“as cool as you…”


[Fill 3] 
(play with chorus effect)

E|--------------------------------------------------|
B|--------------------------------------------------|
G|--------------5-----------------------------------|
D|------3-----5---5---5---4---2---0-----------------|
A|----3---3-3---------------------------------------|
D|--3---------------0---0---0---0-------------------|(x4)

“body and soul, i’m a freak, i’m a freak…”


[Verse/Chorus]


[Bridge]

E|-----------------------------------------------------|
B|-----------------------------------------------------|
G|-----------------------------------------------------|
D|--5--5-2p0h2--4--4-4--4-4-4-4------------------------|
A|--5--5-2p0h2--4--4-4--4-4-4-4------------------------|
D|--5--5—2p0h2--4--4-4--4-4-4-4------------------------|(x3)

“i don’t really know, how to put on a cool show…”

Play over Bridge on 1st and 3rd times:

E|--------------------------------------------------|
B|--------------------------------------------------|
G|----6b7b6-----------------------------------------|
D|--------------------------------------------------|
A|--------------------------------------------------|
D|--------------------------------------------------|

E|-----------------------------------------------------|
B|-----------------------------------------------------|
G|-----------------------------------------------------|
D|--5--5-2p0h2--4--4-4-4-4-4-4---4--4--4--4------------|
A|--5--5-2p0h2--4--4-4-4-4-4-4---4--4--4--4------------|
D|--5--5—2p0h2--4--4-4-4-4-4-4---4--4--4--4------------|
                  PM_________

“just tell me where to go…”
then play Fill 1, then Fill 2 (x4)


[Fill 4]

E|--------------------------------------------------|
B|--------------------------------------------------|
G|------------5-5-----------------------------------|
D|--3---3-3-3-5-5-0-0-0-0-0-0-0-0-------------------|
A|--3---3-3-3-3-3-0-0-0-0-0-0-0-0-------------------|
D|--3---3-3-3-----0-0-0-0-0-0-0-0-------------------|(x4)
       PM_______________________

on fourth time, gradually stop palm muting
“Body and soul, i’m a freak, i’m a freak…”


[Solo]

E|-----------------------------------------------------|
B|-----------------------------------------------------|
G|—14~-17~-11~---14~-17~-11~---17~-11~---14~-11~-------|
D|-----------------------------------------------------|
A|-----------------------------------------------------|
D|-----------------------------------------------------|


Then play Fill 4 minus the palm mutes x4, and then the intro riff x4 and end on Fill 1.



************************************

| h   Hammer-on
| /   Slide up
| p   Pull-off
| b   Bend
| PM  Palm mute
| ~   tremelo picking)

************************************

            
            
Suggest correction
Creating personal tab
Creating personal tab
You can edit any tab online and save it as your Personal.

You can edit, replace or remove any tab part or add personal notes – all changes will be seen only by you.

Personal tabs can be accessed anytime from any device, even offline.
Learn more »
comments
print report bad tab
8 comments total. Showing first comments.
0 reply
azn_guitarist25 80 Jan 02, 2007 05:28 PM

well done mate this is frikin awesome 5 thanks for this tab that is actually right lol rock out man

0 reply
kiss08 125 Jul 18, 2008 02:26 AM

5 STARS

0 reply
xlizrocksx 10 Aug 06, 2008 12:39 PM

this is awesome and dead on!!! thanks so much!!

guest
Wanna post a correction for this tab? Suggest correction