Oops, an error
Loading. Please wait.

Israels Son bass

version 1
version 1

Whole song

Interactive

17,855 views 60 this week
4 commentsread comments
1 2 3 4 5
x 20
add to favorites
×
Save as Personal and add changes to this tab that will be seen only by you. Learn more ›
×
You can save this tab as Personal to edit and correct it or add notes. All changes will be seen only by you. Learn more »
launch autoscroll
font size
0
reset
guitar tuner
backing track
0:00
0:00
edit
Autoscroll
slow
fast
+/-
esc
set tempo
stop
This song is in drop-D tuning.

[Intro] without heavy distortion
G|------------------------|
D|------------------------|
A|---------3--------5-----|
D|-0-0-3/5----0-3/5-------| ...x4

     : with heavy distortion
G|------------------------|
D|------------------------|
A|---------3--------5-----|
D|-0-0-3/5----0-3/5-------| ...x8 (guitar starts)

[Verse 1] without heavy distortion
G|----------------------------------|
D|----------------------------------|
A|---------3--------5---------------|
D|-0-0-3/5----0-3/5--------| ...x12-|

[Chorus]
G|-------------------------------------------------------------|
D|-------------------------------------------------------------|
A|-------------------------------------------------------------|
D|-0-0-5/3-0-2-3-0-0-5/3-0-2-3-0-0-5/3-0-2-3-1-1-1-1-6-6-6-6---|

[Verse 2] without heavy distortion
G|----------------------------------|
D|----------------------------------|
A|---------3--------5---------------|
D|-0-0-3/5----0-3/5--------| ...x12-|

[Chorus]
G|-------------------------------------------------------------|
D|-------------------------------------------------------------|
A|-------------------------------------------------------------|
D|-0-0-5/3-0-2-3-0-0-5/3-0-2-3-0-0-5/3-0-2-3-1-1-1-1-6-6-6-6---|

G|---------------------------------------------------------------|
D|---------------------------------------------------------------|
A|---------------------------------------------------------------|
D|-0-0-5/3-0-2-3-0-0-5/3-0-2-3-0-0-5/3-0-2-3-1-1-1-1-6-6-6-6-5---|

-Pause for four bars, i.e: four times what it takes to play the main riff (intro. riff)-

[Verse 3] without heavy distortion
G|----------------------------------|
D|----------------------------------|
A|---------3--------5---------------|
D|-0-0-3/5----0-3/5-------| ...x12--|

[Chorus]
G|-------------------------------------------------------------|
D|-------------------------------------------------------------|
A|-------------------------------------------------------------|
D|-0-0-5/3-0-2-3-0-0-5/3-0-2-3-0-0-5/3-0-2-3-1-1-1-1-6-6-6-6---|

G|-------------------------------------------------------------|
D|-------------------------------------------------------------|
A|-------------------------------------------------------------|
D|-0-0-5/3-0-2-3-0-0-5/3-0-2-3-0-0-5/3-0-2-3-1-1-1-1-6-6-6-6---|

G|-------------------------------------------------------------|
D|-------------------------------------------------------------|
A|-------------------------------------------------------------|
D|-1-1-1-1-6-6-6-6-1-1-1-1-6-6-6-6-5(hold, let ring)-----------|

-Pause for two bars-

[Outro]
G|-------------------------------|
D|-------------------------------|
A|----------------3--------------|
D|-0-0-5-3--0-3-5----5----| .----|x3

G|-------------------------------|
D|-------------------------------|
A|----------------2h3h2----------|
D|-0-0-5-3--0-3-5-------5-| .----|x1

-After five runs of the outro riff the pace quickens but playing remains the same until
the end of the song-

            
            
Suggest correction
Creating personal tab
Creating personal tab
You can edit any tab online and save it as your Personal.

You can edit, replace or remove any tab part or add personal notes – all changes will be seen only by you.

Personal tabs can be accessed anytime from any device, even offline.
Learn more »
comments
print report bad tab
4 comments total. Showing first comments.
0 reply
007 10 Mar 08, 2002 07:00 PM

excellent

0 reply
metal_massacre 50 Apr 09, 2002 08:00 PM

Spot on man Great Tab !!

0 reply
Slip_It_Back 10 Sep 26, 2007 01:39 PM

Kickarse

guest
You may want to rate the tab now too:
select rating
Wanna post a correction for this tab? Suggest correction