Oops, an error
Loading. Please wait.

Stoned tab

version 2
version 2

Whole song

476 views 1 this week
no commentswrite comment
1 2 3 4 5
2 more votes to show rating
add to favorites
×
Save as Personal and add changes to this tab that will be seen only by you. Learn more ›
×
You can save this tab as Personal to edit and correct it or add notes. All changes will be seen only by you. Learn more »
launch autoscroll
font size
0
reset
how to read this tab
guitar tuner
edit
Autoscroll
slow
fast
+/-
esc
set tempo
stop
-------------------------------------------------------------------------------
                           Stoned - Silverchair
-------------------------------------------------------------------------------
Tabbed by: Jake Morash
E-mail: jakemorash314@verizon.net

Tuning: Standard

  Intro:
e|-----------------------------------------------|
B|-----------------------------------------------|
G|-----------2--2-2-2-2-2--3--3-3-3--5-----------|
D|-5--5-5-5--2--2-2-2-2-2--3--3-3-3--5-----------|
A|-5--5-5-5--0--0-0-0-0-0--1--1-1-1--3-----------|
E|-3--3-3-3--------------------------------------|

  Verse: strum these 3 chords multiple times
e|-3----3-----3----------|
B|-3----2-----4----------|
G|-4----3-----5----------|
D|-5----3-----5----------|
A|-5----1-----3----------|
E|-3---------------------|
  Sitting in my bedroom baby
  You know I'm spinning
  Haven't got much headroom
  But I'm only living

  Chorus:
e|------------------------------------------------------------------------------------------------------|
B|------------------------------------------------------------------------------------------------------| x2
G|-----------2--2-2-2-2-2--3--3-3-3--------------------------2--2-2-2-2-2--3--3-3-3--5--5-5-5-5-5-------|
D|-5--5-5-5--2--2-2-2-2-2--3--3-3-3--3--3-3-3-3-3--5--5-5-5--2--2-2-2-2-2--3--3-3-3--5--5-5-5-5-5-------|
A|-5--5-5-5--0--0-0-0-0-0--1--1-1-1--3--3-3-3-3-3--5--5-5-5--0--0-0-0-0-0--1--1-1-1--3--3-3-3-3-3-------|
E|-3--3-3-3--------------------------1--1-1-1-1-1--3--3-3-3---------------------------------------------|
  You've got me stoned!
  Sitting in my bedroom spinning
  Stoned yeah!

  Solo:
e|-5b-3~--1h3--1h3-1h3p1-3-3--5b-3------------------------|
B|---------------------------------3b---------------------| that's all I know for the solo, he just
G|------------------------------------5-3-----------------|plays the pentatonic scale for pretty much
D|----------------------------------------5b--------------|the rest of the solo
A|--------------------------------------------------------|
E|-------------------------------------------3h5p3--------| 
 

************************************
| h   hammer-on
| p   pull-off
| b   Bend
************************************

            
            
Suggest correction
Creating personal tab
Creating personal tab
You can edit any tab online and save it as your Personal.

You can edit, replace or remove any tab part or add personal notes – all changes will be seen only by you.

Personal tabs can be accessed anytime from any device, even offline.
Learn more »
Give kudos to tab author, rate the tab!
1 2 3 4 5
comments
print report bad tab
guest
Wanna post a correction for this tab? Suggest correction