Oops, an error
Loading. Please wait.

Young Modern Station tab

1,565 views 6 this week
no commentswrite comment
1 2 3 4 5
2 more votes to show rating
add to favorites
×
Save as Personal and add changes to this tab that will be seen only by you. Learn more ›
×
You can save this tab as Personal to edit and correct it or add notes. All changes will be seen only by you. Learn more »
launch autoscroll
font size
0
reset
how to read this tab
guitar tuner
edit
Autoscroll
slow
fast
+/-
esc
set tempo
stop
Author
#----------------------------------PLEASE NOTE---------------------------------#
#This file is the author's own work and represents their interpretation of the #
#song. You may only use this file for private study, scholarship, or research. #
#------------------------------------------------------------------------------##


Artist: Silverchair
Song: Young Modern Station
Tabbed by: Manthony
01.31.09


TUNING: (E A D G B E)

CHORD DIAGRAM
-------------------------------------------------------------------------

 B7add11          Em               G#m             D#

 x 2 1 2 0 0      0 2 2 0 0 0      4 6 6 4 4 4     11 13 13 12 11 11


 D#sus2

 x 6 8 8 6 6

-------------------------------------------------------------------------

B7add11 / Em / G#m / Em


E||------------------------|------------------------|-------------------------||
B||------------------------|------------------------|-------------------------||
G||------------------------|------------------------|-------------------------||
D||------------------------|------------------------|-------------------------||
A||--------------------3---|--------------------5---|--------------------3----||
E||--/8--8-8--0--0-0-3---3-|--/8--8-8--0--0-0-3---3-|--/8--8-8--0--0-0-3---3--||


Stalled at young modern station
Arthritic conversation
Life has a deadline latley
G#m          D#     G#m / D#
Allergic and in the news

E||------------------------|------------------------|-------------------------||
B||------------------------|------------------------|-------------------------||
G||------------------------|------------------------|-------------------------||
D||------------------------|------------------------|-------------------------||
A||--------------------3---|--------------------5---|--------------------3----||
E||--/8--8-8--0--0-0-3---3-|--/8--8-8--0--0-0-3---3-|--/8--8-8--0--0-0-3---3--||


The clocks are ticking timeless
Dead Dali days behind
The band is back together
G#m          D#     G#m / D#
Allergic and in the news


.........................................

B7add11              Em
Does it make you cry
                        G#m
When I make you feel so far away
    Em
The interview's over
B7add11
Stuck to the goal
   Em
To rescue my skin

.........................................

E||------------------------|------------------------|-------------------------||
B||------------------------|------------------------|-------------------------||
G||------------------------|------------------------|-------------------------||
D||------------------------|------------------------|-------------------------||
A||--------------------3---|--------------------5---|--------------------3----||
E||--/8--8-8--0--0-0-3---3-|--/8--8-8--0--0-0-3---3-|--/8--8-8--0--0-0-3---3--||


I need a different liquor
So sick of getting sicker
And I'm moving back to the country
G#m          D#     G#m / D#
Allergic and in the news


.......................................

B7add11              Em
Does it make you cry
                        G#m
When I make you feel so far away
    Em
The interview's over
B7add11
Stuck to the goal
   Em
To rescue my skin
          G#m
You're so far away
    Em
The interview's over

.......................................


He dreams of tracks and choices
I think I'm hearing voices

E||------------------------|------------------------|-----------6--6-6-6-6-6-6-6--||
B||------------------------|------------------------|-----------6--6-6-6-6-6-6-6--||
G||------------------------|------------------------|-----------8--8-8-8-8-8-8-8--||
D||------------------------|------------------------|-----------8--8-8-8-8-8-8-8--||
A||--------------------3---|--------------------5---|-----------6--6-6-6-6-6-6-6--||
E||--/8--8-8--0--0-0-3---3-|--/8--8-8--0--0-0-3---3-|--/8--8-8--------------------||


......................................

B7add11              Em
Does it make you cry
                        G#m
When I make you feel so far away
    Em
The interview's over
B7add11
Stuck to the goal
   Em
To rescue my skin
          G#m
You're so far away
    Em
The interview's over

.....................................


#----------------------------------PLEASE NOTE---------------------------------#
#This file is the author's own work and represents their interpretation of the #
#song. You may only use this file for private study, scholarship, or research. #
#------------------------------------------------------------------------------##

            
            
Suggest correction
Creating personal tab
Creating personal tab
You can edit any tab online and save it as your Personal.

You can edit, replace or remove any tab part or add personal notes – all changes will be seen only by you.

Personal tabs can be accessed anytime from any device, even offline.
Learn more »
Give kudos to tab author, rate the tab!
1 2 3 4 5
comments
print report bad tab
guest
You may want to rate the tab now too:
select rating
Wanna post a correction for this tab? Suggest correction