Oops, an error
Loading. Please wait.

Broken Stars tab

version 2
version 2

Whole song

Interactive

9,874 views 6 this week
2 commentsread comments
1 2 3 4 5
x 8
add to favorites
×
Save as Personal and add changes to this tab that will be seen only by you. Learn more ›
×
You can save this tab as Personal to edit and correct it or add notes. All changes will be seen only by you. Learn more »
launch autoscroll
font size
0
reset
how to read this tab
guitar tuner
edit
Autoscroll
slow
fast
+/-
esc
set tempo
stop
Author
Song: Broken Stars
Band: Silverstein
Tuning: Drop C# (Down 1/2 Step and Drop D)

This isn't all of the guitars, this is the tab for what i play in my cover of the song on youtube.

http://www.youtube.com/watch?v=bQuy1NRAu44

if you use this tab you at least owe me the time to view, rate, and comment on my 
video. 
think of the time i'm saving you by tabbing this.

Also, i put everything in order.  i even repeated parts when they are repeated in 
the song, so if you just follow this part by
part you'll know the whole song as i play it in my video.

E----------------------------|
B----------------------------|
G-10--12--5-10--7-10--12--9--|
D--x---x--x--x--x--x---x--x--|
A--8--10--3--8--5--8--10--7--|
E----------------------------|

E--------------------------------------------------------------------------|
B--------------------------------------------------------------------------|
G-10--12--17--19--15--17--14-14-14-14-14-14-14-14-12-12-12-12-12-12-12-12--|
D--x---x---x---x---x---x---x--x--x--x--x--x--x--x--x--x--x--x--x--x--x--x--|
A--8--10--15--17--13--15--12-12-12-12-12-12-12-12-10-10-10-10-10-10-10-10--|
E--------------------------------------------------------------------------|

E-----------------|
B-----------------|
G--7---5----------|
D--7---5---8---7--|  Figure out strumming for yourself
A--5---3---8---7--|
E----------8---7--|

E-----------------------------------|
B-----------------------------------|
G-----------------------------------|
D-----------10---8------------------|
A-------8------------12---10---8/7--|
E---0-0---0----0---0----0----0------|
PM  . .   .    .   .    .    .

E------------------------------|
B------------------------------|
G------------------------------|
D--0-0------------3p2----------|  mute after 2nd open chord
A--0-0----3p0-5p0--------------|
E--0-0-------------------------|

E------------------------------|
B------------------------------|
G--3--3-3-3-3-3-3--------------|
D--3--3-3-3-3-3-3----------3p2-|
A--1--1-1-1-1-1-1--3p0-5p0-----|
E------------------------------|
PM    . . . . . .

E------------------------------------|
B------------------------------------|
G------------------14-14-12-12-10/9--|
D--3--3-3-3-3-3-3---x--x--x--x--x/x--|
A--3--3-3-3-3-3-3--12-12-10-10--8/7--|
E--3--3-3-3-3-3-3--------------------|
PM    . . . . . .

E-----------------------------|
B-----------------------------|
G--2--2-2-2-2-2--5--5-5-------|
D--2--2-2-2-2-2--5--5-5--2----|
A--0--0-0-0-0-0--3--3-3----3--|
E-----------------------------|
PM    . . . . .     . .

E------------------------------|
B------------------------------|
G------------------------------|
D--0--0-0-0-0-0-0----------3p2-|
A--0--0-0-0-0-0-0--3p0-5p0-----|
E--0--0-0-0-0-0-0--------------|
PM    . . . . . .

E------------------------------|
B------------------------------|
G--3--3-3-3-3-3-3--------------|
D--3--3-3-3-3-3-3----------3p2-|
A--1--1-1-1-1-1-1--3p0-5p0-----|
E------------------------------|
PM    . . . . . .

E------------------------------|
B------------------------------|
G------------------------------|
D--3------7--------------------|   Figure out strumming for yourself
A--3------7--------------------|
E--3------7--------------------|

E------------------------------|
B------------------------------|
G--------------3---------------|   mute after 2nd open chord
D--0-0----3----3----3----2-----|   figure out strumming for the rest
A--0-0----3----1----3----3-----|   play twice in a row
E--0-0----3---------3----2-----|

E-----------------------------------|
B-----------------------------------|
G-----------------------------------|
D-----------10---8------------------|
A-------8------------12---10---8/7--|
E---0-0---0----0---0----0----0------|
PM  . .   .    .   .    .    .

E------------------------------|
B------------------------------|
G------------------------------|
D--0--0-0-0-0-0-0----------3p2-|
A--0--0-0-0-0-0-0--3p0-5p0-----|
E--0--0-0-0-0-0-0--------------|
PM    . . . . . .

E------------------------------|
B------------------------------|
G--3--3-3-3-3-3-3--------------|
D--3--3-3-3-3-3-3----------3p2-|
A--1--1-1-1-1-1-1--3p0-5p0-----|
E------------------------------|
PM    . . . . . .

E------------------------------------|
B------------------------------------|
G------------------14-14-12-12-10/9--|
D--3--3-3-3-3-3-3---x--x--x--x--x/x--|
A--3--3-3-3-3-3-3--12-12-10-10--8/7--|
E--3--3-3-3-3-3-3--------------------|
PM    . . . . . .

E-----------------------------|
B-----------------------------|
G--2--2-2-2-2-2--5--5-5-------|
D--2--2-2-2-2-2--5--5-5--2----|
A--0--0-0-0-0-0--3--3-3----3--|
E-----------------------------|
PM    . . . . .     . .

E------------------------------|
B------------------------------|
G------------------------------|
D--0--0-0-0-0-0-0----------3p2-|
A--0--0-0-0-0-0-0--3p0-5p0-----|
E--0--0-0-0-0-0-0--------------|
PM    . . . . . .

E------------------------------|
B------------------------------|
G--3--3-3-3-3-3-3--------------|
D--3--3-3-3-3-3-3----------3p2-|
A--1--1-1-1-1-1-1--3p0-5p0-----|
E------------------------------|
PM    . . . . . .

E------------------------------|
B------------------------------|
G------------------------------|
D--3------7--------------------|   Figure out strumming for yourself
A--3------7--------------------|
E--3------7--------------------|

E------------------------------|
B------------------------------|
G--------------3---------------|   mute after 2nd open chord
D--0-0----3----3----3----2-----|   figure out strumming for the rest
A--0-0----3----1----3----3-----|   play twice in a row
E--0-0----3---------3----2-----|

E--------------------------------------------|
B--------------------------------------------|
G--15-15-14-14-12-12-10-10-12-12-10-10-9/10--|
D---x--x--x--x--x--x--x--x--x--x--x--x-x/x---|
A--13-13-12-12-10-10--8--8-10-10--8--8-7/8---|
E--------------------------------------------|

E--------------------------------------------|
B--------------------------------------------|
G--10-10-10-10-10-9----10-10-10-10-10-9------|
D---x--x--x--x--x-x-----x--x--x--x--x-x------|
A---8--8--8--8--8-7-----8--8--8--8--8-7------|
E--------------------------------------------|

E--------------------------------------------|
B--------------------------------------------|
G--15-15-14-14-12-12-10-10-12-12-10-10-9/10--|
D---x--x--x--x--x--x--x--x--x--x--x--x-x/x---|
A--13-13-12-12-10-10--8--8-10-10--8--8-7/8---|
E--------------------------------------------|

E--------------------------------------------|
B--------------------------------------------|
G--9-9-9-9-9-9-9--14-14-14-14-14-14-14-14----|
D--x-x-x-x-x-x-x---x--x--x--x--x--x--x--x----|
A--7-7-7-7-7-7-7--12-12-12-12-12-12-12-12----|
E--------------------------------------------|

E--------------------------------------------|
B--------------------------------------------|
G--15-15-14-14-12-12-10-10-12-12-10-10-9/10--|
D---x--x--x--x--x--x--x--x--x--x--x--x-x/x---|
A--13-13-12-12-10-10--8--8-10-10--8--8-7/8---|
E--------------------------------------------|

E--------------------------------------------|
B--------------------------------------------|
G--10-10-10-10-10-9----10-10-10-10-10-9------|
D---x--x--x--x--x-x-----x--x--x--x--x-x------|
A---8--8--8--8--8-7-----8--8--8--8--8-7------|
E--------------------------------------------|

E--------------------------------------------|
B--------------------------------------------|
G--15-15-14-14-12-12-10-10-12-12-10-10-9/10--|
D---x--x--x--x--x--x--x--x--x--x--x--x-x/x---|
A--13-13-12-12-10-10--8--8-10-10--8--8-7/8---|
E--------------------------------------------|

E---------------------------------------------|
B---------------------------------------------|
G--9-9-9-9-9-10-9----12-14-14-14-14-14-12-14--|
D--x-x-x-x-x--x-x-----x--x--x--x--x--x--x--x--|
A--7-7-7-7-7--8-7----10-12-12-12-12-12-10-12--|
E---------------------------------------------|

E------------------------------|
B------------------------------|
G--------------3---------------|   mute after 2nd open chord
D--0-0----3----3----3----2-----|   figure out strumming for the rest
A--0-0----3----1----3----3-----|   play twice in a row
E--0-0----3---------3----2-----|

E------------------------------|
B------------------------------|
G------------------------------|
D--0~~~~~~~~~~~~~~-------------|  let this chord ring out
A--0~~~~~~~~~~~~~~-------------|
E--0~~~~~~~~~~~~~~-------------|

E----------------------------------------------------------|
B----------------------------------------------------------|
G--10-10-9-7-------12-12-10-9------10-10-9-7-------3----5--|
D---x--x-x-x--000---x--x--x-x--000--x--x-x-x--000--3----5--|  play this
A---8--8-7-5--000--10-10--8-7--000--8--8-7-5--000--1----3--|  three times
E-------------000--------------000------------000----------|
PM            ...              ...            ...

E----------------------------------------------------------|
B----------------------------------------------------------|
G--10-10-9-7-------12-12-10-9------10-10-9-7-------3----6--|
D---x--x-x-x--000---x--x--x-x--000--x--x-x-x--000--3----x--|
A---8--8-7-5--000--10-10--8-7--000--8--8-7-5--000--1----4--|
E-------------000--------------000------------000----------|
PM            ...              ...            ...

E----------------------------------------------------------|
B----------------------------------------------------------|
G--10-10-9-7-------12-12-10-9------10-10-9-7-------3----5--|
D---x--x-x-x--000---x--x--x-x--000--x--x-x-x--000--3----5--|  play this
A---8--8-7-5--000--10-10--8-7--000--8--8-7-5--000--1----3--|  two times
E-------------000--------------000------------000----------|
PM            ...              ...            ...

E----------------------------------------------------------|
B----------------------------------------------------------|
G--3----5----3----5----------------------------------------|  end on last
D--3----5----3----5----0-0-0~~~~~~~~~~~~~~~~~~~~~~---------|  chord, let
A--1----3----1----3----0-0-0~~~~~~~~~~~~~~~~~~~~~~---------|  ring
E----------------------0-0-0~~~~~~~~~~~~~~~~~~~~~~---------|
PM                     . .

and that's it.  i would advise looking at these tabs and playing my video on 
youtube to see how it's supposed to sound.

            
            
Suggest correction
Creating personal tab
Creating personal tab
You can edit any tab online and save it as your Personal.

You can edit, replace or remove any tab part or add personal notes – all changes will be seen only by you.

Personal tabs can be accessed anytime from any device, even offline.
Learn more »
comments
print report bad tab
2 comments total.
0 reply
Sam Rulez D00d 948 Jun 29, 2009 07:29 AM

perfect tab... again. =P

0 reply
Rockinguitar 50 Jul 25, 2009 04:27 PM

Basically perfect dude!!! Except it sounds more like this to me...idk XD
E-----------------------------------|
B-----------------------------------|
G-----------------------------------|
D-----------10---8------------------|
A-------8------------12---10---8/7--|
E---8-8---8----8---8----8----8------|
PM . . . . . . .

guest
You may want to rate the tab now too:
select rating
Wanna post a correction for this tab? Suggest correction