Oops, an error
Loading. Please wait.

Cut And Run tab

178 views 6 this week
no commentswrite comment
1 2 3 4 5
2 more votes to show rating
add to favorites
×
Save as Personal and add changes to this tab that will be seen only by you. Learn more ›
×
You can save this tab as Personal to edit and correct it or add notes. All changes will be seen only by you. Learn more »
launch autoscroll
font size
0
reset
how to read this tab
guitar tuner
edit
Autoscroll
slow
fast
+/-
esc
set tempo
stop
Tabbed by: Joshua Garcia (joshuag523@aol.com)
 
Tabs for the song: Cut and Run by Silverstein
Please rate and let me know if you have any corrections. Thank you.
 

Tuning: Drop B (B F# B E G# C#)
 
 
[Intro]
Guitar 1:
C#||-----------------------------------------|-------------------------------------------|
G#||-----------------------------------------|-------------------------------------------|
E ||-----------------------------------------|-------------------------------------------|
B ||-----------------------------------------|-------------------------------------------|
F#||-----------------------------------------|-------------------------------------------|
B ||--12-12-12-12-11-11-11----4-4-4-4-7-7-7--|--12-12-12-12-11-11-11----4-4-4-4-4-4-4-4--|


C#||-----------------------------------------|---------------------------------|
G#||-----------------------------------------|---------------------------------|
E ||-----------------------------------------|---------------------------------|
B ||-----------------------------------------|---------------------------------|
F#||-----------------------------------------|---------------------------------|
B ||--12-12-12-12-11-11-11----4-4-4-4-7-7-7--|--12-12-12-12-11-11-11----4-4-4--|


Guitar 1/2:
C#||--------------------|
G#||----------------'5--|
E ||--------------------|
B ||--x---x---x-x-x-----|
F#||--x---x---x-x-x-----|
B ||--x---x---x-x-x-----|



[Pre-Verse]
Guitar 1/2:
C#||------------------------------------------|-------------------------------------------|
G#||------------------------------------------|-------------------------------------------|
E ||------------------------------------------|-------------------------------------------|
B ||--12-12-12-12-11-11-11----4-4-4-4-7-7-x7--|--12-12-12-12-11-11-11----4-4-4-4-4-4-4-4--|
F#||--12-12-12-12-11-11-11----4-4-4-4-7-7-x7--|--12-12-12-12-11-11-11----4-4-4-4-4-4-4-4--|
B ||--12-12-12-12-11-11-11----4-4-4-4-7-7-x7--|--12-12-12-12-11-11-11----4-4-4-4-4-4-4-4--|


Guitar 1:
C#||------------------------------------------|-------------------------------------------|
G#||------------------------------------------|-------------------------------------------|
E ||------------------------------------------|-------------------------------------------|
B ||--12-12-12-12-11-11-11----4-4-4-4-7-7-x7--|--12-12-12-12-11-11-11---------------------|
F#||--12-12-12-12-11-11-11----4-4-4-4-7-7-x7--|--12-12-12-12-11-11-11---------------------|
B ||--12-12-12-12-11-11-11----4-4-4-4-7-7-x7--|--12-12-12-12-11-11-11----4-4-4-4-4-4-4-4--|


Guitar 2:
C#||------------------------------------------|-------------------------------------------|
G#||--9-9-9-9b10r9-9-9------9-9-9-9b10r9-9-7--|--9-9-9-9b10r9-9-9------9-9-9--------------|
E ||------------------------------------------|------------------------------7-7-7-6~-----|
B ||------------------------------------------|-------------------------------------------|
F#||------------------------------------------|-------------------------------------------|
B ||------------------------------------------|-------------------------------------------|



[Verse]
Guitar 1:
C#||----------------------------------------------------------------------------|
G#||----------------------------------------------------------------------------|
E ||----------------------------------------------------------------------------|
B ||----------------------------------------------------------------------------|
F#||----------------------------------------------------------------------------|
B ||--12-12-12-12--11--11----4-4-4-4--2--7----7-7-7-7--2--7----7-7-7-7--11--11--|


C#||---------------------------------------------------------------------------------|
G#||---------------------------------------------------------------------------------|
E ||---------------------------------------------------------------------------------|
B ||---------------------------------------------------------------------------------|
F#||---------------------------------------------------------------------------------|
B ||--12-12-12-12--11--11----4-4-4-4--2--7----7-7-7-7--2--7----7-7-7-7-7-11-11-11-11-|



[Chorus]
Guitar 1/2:
C#||------------------------------------------|-------------------------------------------|
G#||------------------------------------------|-------------------------------------------|
E ||------------------------------------------|-------------------------------------------|
B ||--12-12-12-12-11-11-11----4-4-4-4-7-7-x7--|--12-12-12-12-11-11-11----4-4-4-4-4-4-4-4--|
F#||--12-12-12-12-11-11-11----4-4-4-4-7-7-x7--|--12-12-12-12-11-11-11----4-4-4-4-4-4-4-4--|
B ||--12-12-12-12-11-11-11----4-4-4-4-7-7-x7--|--12-12-12-12-11-11-11----4-4-4-4-4-4-4-4--|


Guitar 1:
C#||------------------------------------------|-------------------------------------------|
G#||------------------------------------------|-------------------------------------------|
E ||------------------------------------------|-------------------------------------------|
B ||--12-12-12-12-11-11-11----4-4-4-4-7-7-x7--|--12-12-12-12-11-11-11----4-4-4-4----------|
F#||--12-12-12-12-11-11-11----4-4-4-4-7-7-x7--|--12-12-12-12-11-11-11----4-4-4-4----------|
B ||--12-12-12-12-11-11-11----4-4-4-4-7-7-x7--|--12-12-12-12-11-11-11----4-4-4-4----------|


Guitar 2:
C#||------------------------------------------|-------------------------------------------|
G#||--9-9-9-9b10r9-9-9------9-9-9-9b10r9-9-7--|--9-9-9-9b10r9-9-9------9-9-9--------------|
E ||------------------------------------------|------------------------------7-7-7-6~-----|
B ||------------------------------------------|-------------------------------------------|
F#||------------------------------------------|-------------------------------------------|
B ||------------------------------------------|-------------------------------------------|



[Verse]
Guitar 1:
C#||----------------------------------------------------------------------------|
G#||----------------------------------------------------------------------------|
E ||----------------------------------------------------------------------------|
B ||----------------------------------------------------------------------------|
F#||----------------------------------------------------------------------------|
B ||--12-12-12-12--11--11----4-4-4-4--2--7----7-7-7-7--2--7----7-7-7-7--11--11--|


C#||---------------------------------------------------------------------------------|
G#||---------------------------------------------------------------------------------|
E ||---------------------------------------------------------------------------------|
B ||---------------------------------------------------------------------------------|
F#||---------------------------------------------------------------------------------|
B ||--12-12-12-12--11--11----4-4-4-4--2--7----7-7-7-7--2--7----7-7-7-7-7-11-11-11-11-|



[Pre-Chorus]
Guitar 1:
C#||----------------------------------------------------------------------------|
G#||----------------------------------------------------------------------------|
E ||----------------------------------------------------------------------------|
B ||----------------------------------------------------------------------------|
F#||----------------------------------------------------------------------------|
B ||--12-12-12-12--11--11----4-4-4-4--2--7----7-7-7-7--2--7----7-7-7-7--11--11--|


C#||---------------------------------------------------------------------------------|
G#||---------------------------------------------------------------------------------|
E ||---------------------------------------------------------------------------------|
B ||---------------------------------------------------------------------------------|
F#||---------------------------------------------------------------------------------|
B ||--12-12-12-12--11--11----4-4-4-4--2--7----7-7-7-7--2--7----7-7-7-7-7-11-11-11-11-|


Guitar 2:
C#||----------------------------------------------------------------------------|
G#||----------------------------------------------------------------------------|
E ||----------------------------------------------------------------------------|
B ||--12-12-12-12--11--11----4-4-4-4--2--7----7-7-7-7--2--7----7-7-7-7--11--11--|
F#||----------------------------------------------------------------------------|
B ||----------------------------------------------------------------------------|


C#||---------------------------------------------------------------------------------|
G#||---------------------------------------------------------------------------------|
E ||---------------------------------------------------------------------------------|
B ||--12-12-12-12--11--11----4-4-4-4--2--7----7-7-7-7--2--7----7-7-7-7-7-11-11-11-11-|
F#||---------------------------------------------------------------------------------|
B ||---------------------------------------------------------------------------------|



[Chorus]
Guitar 1/2:
C#||------------------------------------------|-------------------------------------------|
G#||------------------------------------------|-------------------------------------------|
E ||------------------------------------------|-------------------------------------------|
B ||--12-12-12-12-11-11-11----4-4-4-4-7-7-x7--|--12-12-12-12-11-11-11----4-4-4-4-4-4-4-4--|
F#||--12-12-12-12-11-11-11----4-4-4-4-7-7-x7--|--12-12-12-12-11-11-11----4-4-4-4-4-4-4-4--|
B ||--12-12-12-12-11-11-11----4-4-4-4-7-7-x7--|--12-12-12-12-11-11-11----4-4-4-4-4-4-4-4--|


Guitar 1:
C#||------------------------------------------|-------------------------------------------|
G#||------------------------------------------|-------------------------------------------|
E ||------------------------------------------|-------------------------------------------|
B ||--12-12-12-12-11-11-11----4-4-4-4-7-7-x7--|--12-12-12-12-11-11-11\-----------x-x-x-x--|
F#||--12-12-12-12-11-11-11----4-4-4-4-7-7-x7--|--12-12-12-12-11-11-11\-----------x-x-x-x--|
B ||--12-12-12-12-11-11-11----4-4-4-4-7-7-x7--|--12-12-12-12-11-11-11\-----------x-x-x-x--|


Guitar 2:
C#||------------------------------------------|-------------------------------------------|
G#||--9-9-9-9b10r9-9-9------9-9-9-9b10r9-9-7--|--9-9-9-9b10r9-9-9\------------------------|
E ||------------------------------------------|-------------------------------------------|
B ||------------------------------------------|----------------------------------x-x-x-x--|
F#||------------------------------------------|----------------------------------x-x-x-x--|
B ||------------------------------------------|----------------------------------x-x-x-x--|



[Bridge]
Guitar 1/2:
C#||-----------------------------------------------------|
G#||-----------------------------------------------------|
E ||-----------------------------------------------------|
B ||--0--0--0-----0-0--0--0--0--9--9--9--9-9--9--9--x-x--|
F#||--0--0--0-----0-0--0--0--0--9--9--9--9-9--9--9--x-x--|
B ||--0--0--0-----0-0--0--0--0--9--9--9--9-9--9--9--x-x--|


C#||---------------------------------------------------------------|
G#||---------------------------------------------------------------|
E ||---------------------------------------------------------------|
B ||--4--4--4--4-4----4-4----4--4--4--4--4--4-4--------------------|
F#||--4--4--4--4-4----4-4----4--4--4--4--4--4-4--------------------|
B ||--4--4--4--4-4----4-4----4--4--4--4--4--4-4--6-6---6--7--7--9--|


C#||----------------------------------------------|
G#||----------------------------------------------|
E ||----------------------------------------------|
B ||--0--0-0----0--0--0--9--9--9--9-9--9--9--x-x--|
F#||--0--0-0----0--0--0--9--9--9--9-9--9--9--x-x--|
B ||--0--0-0----0--0--0--9--9--9--9-9--9--9--x-x--|


C#||--------------------------------------------------------|
G#||--------------------------------------------------------|
E ||-----------11----11-------------13-13---13-13---13--14--|
B ||--4--4--4--x-----x-----4--4--4--x--x----x--x----x---x---|
F#||--4--4--4--9-----9-----4--4--4--11-11---11-11---11--12--|
B ||--4--4--4--------------4--4--4--------------------------|


C#||------------------------------------------------------|
G#||------------------------------------------------------|
E ||------------------------------------------------------|
B ||--0--0--0----0-0--0--0--0--9--9--9----9-9--9--9--x-x--|
F#||--0--0--0----0-0--0--0--0--9--9--9----9-9--9--9--x-x--|
B ||--0--0--0----0-0--0--0--0--9--9--9----9-9--9--9--x-x--|


C#||-------------------------------------------------------------|
G#||-------------------------------------------------------------|
E ||-------------------------------------------------------------|
B ||--4--4--4--4-4---4-4---4--4--7--7--7--7-7---7-7--7--7--------|
F#||--4--4--4--4-4---4-4---4--4--7--7--7--7-7---7-7--7--7--------|
B ||--4--4--4--4-4---4-4---4--4--7--7--7--7-7---7-7--7--7--7--9--|


C#||----------------------------------------------|
G#||----------------------------------------------|
E ||----------------------------------------------|
B ||--0--0-0----0--0--0--9--9--9--9-9--9--9--x-x--|
F#||--0--0-0----0--0--0--9--9--9--9-9--9--9--x-x--|
B ||--0--0-0----0--0--0--9--9--9--9-9--9--9--x-x--|


C#||--------------------------------------------------------|
G#||--------------------------------------------------------|
E ||-----------11----11-------------13-13---13-13---13--14--|
B ||--4--4--4--x-----x-----4--4--4--x--x----x--x----x---x---|
F#||--4--4--4--9-----9-----4--4--4--11-11---11-11---11--12--|
B ||--4--4--4--------------4--4--4--------------------------|



[Interlude]
Guitar 1:
C#||-----------------------------------------|-------------------------------------------|
G#||-----------------------------------------|-------------------------------------------|
E ||-----------------------------------------|-------------------------------------------|
B ||-----------------------------------------|-------------------------------------------|
F#||-----------------------------------------|-------------------------------------------|
B ||--12-12-12-12-11-11-11----4-4-4-4-7-7-7--|--12-12-12-12-11-11-11----4-4-4-4-4-4-4-4--|


Guitar 1/2:
C#||-----------------------------------------|-----------------------------------------|
G#||-----------------------------------------|-----------------------------------------|
E ||-----------------------------------------|-----------------------------------------|
B ||-----------------------------------------|-----------------------------------------|
F#||-----------------------------------------|-----------------------------------------|
B ||--12-12-12-12-11-11-11-11-4-4-4-4-7-7-7--|--12-12-12-12-11-11-11----4-4-4-4-4-4-4--|



[Chorus]
Guitar 1:                    (2)
C#||------------------------------------------|-------------------------------------------|
G#||------------------------------------------|-------------------------------------------|
E ||------------------------------------------|-------------------------------------------|
B ||--12-12-12-12-11-11-11----4-4-4-4-7-7-x7--|--12-12-12-12-11-11-11----4-4-4-4-4-4-4-4--|
F#||--12-12-12-12-11-11-11----4-4-4-4-7-7-x7--|--12-12-12-12-11-11-11----4-4-4-4-4-4-4-4--|
B ||--12-12-12-12-11-11-11----4-4-4-4-7-7-x7--|--12-12-12-12-11-11-11----4-4-4-4-4-4-4-4--|


Guitar 1:
C#||------------------------------------------|-------------------------------------------|
G#||------------------------------------------|-------------------------------------------|
E ||------------------------------------------|-------------------------------------------|
B ||--12-12-12-12-11-11-11----4-4-4-4-7-7-x7--|--12-12-12-12-11-11-11----4-4-4------------|
F#||--12-12-12-12-11-11-11----4-4-4-4-7-7-x7--|--12-12-12-12-11-11-11----4-4-4-\\pick\\---|
B ||--12-12-12-12-11-11-11----4-4-4-4-7-7-x7--|--12-12-12-12-11-11-11----4-4-4--\\slide\\-|


Guitar 2:
C#||------------------------------------------|-------------------------------------------|
G#||--9-9-9-9b10r9-9-9------9-9-9-9b10r9-9-7--|--9-9-9-9b10r9-9-9------9-9-9--------------|
E ||------------------------------------------|------------------------------7-7-7-6~-----|
B ||------------------------------------------|-------------------------------------------|
F#||------------------------------------------|-------------------------------------------|
B ||------------------------------------------|-------------------------------------------|



[Outro]
Guitar 1:
C#||-------------------------------------------|-------------------------------------------|
G#||-------------------------------------------|-------------------------------------------|
E ||-------------------------------------------|-------------------------------------------|
B ||--12-12-12-12-11-11-11-11-4-4-4-4-7-7-7-7--|--12-12-12-12-11-11-11-11-4-4-4-4-4-4-4-4--|
F#||--12-12-12-12-11-11-11-11-4-4-4-4-7-7-7-7--|--12-12-12-12-11-11-11-11-4-4-4-4-4-4-4-4--|
B ||--12-12-12-12-11-11-11-11-4-4-4-4-7-7-7-7--|--12-12-12-12-11-11-11-11-4-4-4-4-4-4-4-4--|


C#||-------------------------------------------|---------------------------------------|
G#||-------------------------------------------|---------------------------------------|
E ||-------------------------------------------|---------------------------------------|
B ||--12-12-12-12-11-11-11-11-4-4-4-4-7-7-7-7--|--12-12-12-12-11-11-11-11-4-4-4-4-4-4--|
F#||--12-12-12-12-11-11-11-11-4-4-4-4-7-7-7-7--|--12-12-12-12-11-11-11-11-4-4-4-4-4-4--|
B ||--12-12-12-12-11-11-11-11-4-4-4-4-7-7-7-7--|--12-12-12-12-11-11-11-11-4-4-4-4-4-4--|


Guitar 2:
C#||---------------------------------------------------|
G#||---------------------------------------------------|
E ||--14-14-14-14-13-13-13-13-11-11-11-11-14-14-14-14--|
B ||--x--x--x--x--x--x--x--x--x--x--x--x--x--x--x--x---|
F#||--12-12-12-12-11-11-11-11-9--9--9--9--12-12-12-12--|
B ||---------------------------------------------------|


C#||---------------------------------------------------|
G#||---------------------------------------------------|
E ||--14-14-14-14-13-13-13-13-11-11-11-11-11-11-11-11--|
B ||--x--x--x--x--x--x--x--x--x--x--x--x--x--x--x--x---|
F#||--12-12-12-12-11-11-11-11-9--9--9--9--9--9--9--9---|
B ||---------------------------------------------------|


C#||---------------------------------------------------|
G#||---------------------------------------------------|
E ||--14-14-14-14-13-13-13-13-11-11-11-11-14-14-14-14--|
B ||--x--x--x--x--x--x--x--x--x--x--x--x--x--x--x--x---|
F#||--12-12-12-12-11-11-11-11-9--9--9--9--12-12-12-12--|
B ||---------------------------------------------------|


C#||---------------------------------------------|
G#||---------------------------------------------|
E ||--14-14-14-14-13-13-13-13-11-11-11-11-11-11--|
B ||--x--x--x--x--x--x--x--x--x--x--x--x--x--x---|
F#||--12-12-12-12-11-11-11-11-9--9--9--9--9--9---|
B ||---------------------------------------------|





*****************************
-Tablature Legend-

h   hammer-on
p   pull-off
b   bend
pb  pre-bend
r   release bend
~   hold / vibrato
.   palm mute
/   slide up
\   slide down
*   pinch harmonic
'   natural harmonic
x   mute note
T   tap

*****************************

            
            
Suggest correction
Creating personal tab
Creating personal tab
You can edit any tab online and save it as your Personal.

You can edit, replace or remove any tab part or add personal notes – all changes will be seen only by you.

Personal tabs can be accessed anytime from any device, even offline.
Learn more »
Give kudos to tab author, rate the tab!
1 2 3 4 5
comments
print report bad tab
guest
You may want to rate the tab now too:
select rating
Wanna post a correction for this tab? Suggest correction