Oops, an error
Loading. Please wait.

Dawn Of The Fall bass

225 views 3 this week
2 commentsread comments
1 2 3 4 5
2 more votes to show rating
add to favorites
×
Save as Personal and add changes to this tab that will be seen only by you. Learn more ›
×
You can save this tab as Personal to edit and correct it or add notes. All changes will be seen only by you. Learn more »
launch autoscroll
font size
0
reset
guitar tuner
edit
Autoscroll
slow
fast
+/-
esc
set tempo
stop
Author
+++++++++++++++++++++++++++++++++
| Silverstein- Dawn Of The Fall |
+++++++++++++++++++++++++++++++++

Tuning: EADG

Intro.
1.
G|-------------------------------------|
D|-------------------------------------|
A|-5~------------------2~---333333333x-|
E|-------------------------------------|

Verse
"It was yesterday you told me you loved me.."
2.
G|----------------------------------|
D|-----------------2222222-55-55445-|
A|-5555555-4444444------------------|
E|----------------------------------|

3.
G|--------------------------|
D|--------------------------|
A|-555-4444444--------------|
E|-------------00-2-3333333-|

"But today I learned you found someone else.."
4.
G|----------------------------------|
D|-----------------2222222-55-55445-|
A|-5555555-4444444------------------|
E|----------------------------------|

"Was fake.."
5.
G|--------------------------|
D|--------------------------|
A|-555-4444444--------------|
E|-------------00-2-3333333-|

Chorus
"When I get back home I know that you'll be gone.." x2
6.
G|----------------------------------------------------------|
D|----------------------------------------------------------|
A|-5555x--4444x----------------5555x--4444x-----------------|
E|---------------0000x--3333x---------------0000x--33x--33x-|

Verse
"And today I found out that you.."
7.
G|----------------------------------|
D|-----------------2222222-55-55445-|
A|-5555555-4444444------------------|
E|----------------------------------|

8.
G|--------------------------|
D|--------------------------|
A|-555-4444444--------------|
E|-------------00-2-3333333-|

"A one bedroom apartment.."
9.
G|----------------------------------|
D|-----------------2222222-55-55445-|
A|-5555555-4444444------------------|
E|----------------------------------|

"First met.."
10.
G|--------------------------|
D|--------------------------|
A|-555-4444444--------------|
E|-------------00-2-3333333-|

Chorus
"When I get back home I know that you'll be gone.." x2
11.
G|----------------------------------------------------------|
D|----------------------------------------------------------|
A|-5555x--4444x----------------5555x--4444x-----------------|
E|---------------0000x--3333x---------------0000x--33x--33x-|

Now play verse

1:49
12.
G|----|
D|----|
A|-5~-|
E|----|

"You were there..
With someone else.."

"See my pain!!"  - For quite a few times
13.
G|-----------------------------------------|
D|-----------------------------------------|
A|-555555555-222222222---------------------|
E|---------------------333333333-333333333-|

Last Part 3:09
14.
G|-------------------------------------------------------|
D|-------------------------------------------------------|
A|--------------------------5x---------------------------|
E|-333333333333333333333333-----333333333333333333333333-|

15.
G|-----------------------------------------------------------|
D|---------------754--------------754------------------------|
A|--5-555-555-55-----5-555-555-55----------------------------|
E|-----------------------------------33333333333333333333333-|

16.
G|--------------------------------------------------|
D|--------------------------------------------------|
A|-------------------------222222222222222222222222-|
E|-333333333333333333333333-------------------------|

17.
G|--------------------------------------------------|
D|--------------------------------------------------|
A|-000000000000000000000000-------------------------|
E|-------------------------333333333333333333333333-|

18.
G|--------------------|
D|------------754-----|
A|-5~----5-55-----5~x-|
E|--------------------|

Lyrics:

+++++++++++++++++++++++++++++++++++++++++

It was yesterday you told me you loved me,
But today I learned you found someone else 
and everything was fake. 
When I get back home I know that you'll be gone. 
And all the things I've given you are left behind; I'll put them in a box. 
And today I found out you moved in with him. 
A one-bedroom apartment down the road 
from the place we first met. 
When I get back home I know that you'll be gone. 
With all the memories of me you had 
locked here in this box.
And I'll start to think of everything we had. 
I was always there for you 
I asked for nothing in return I swear. 
I'll believe, 
you'll make you see.
You were there with someone else. 
See my pain, I'll believe 
you were there with him. 
I don't want to see your face again, not like this. 
I don't have to see you in this place.
I don't want to see your face again. (face again)
I will not be ashamed not now. 
This time I won't be ashamed of it. 
This time I won't make it change myself. 
This time I will make myself believe. 
My heart,
it won't break this time, 
won't be left behind, 
I won't be so shy; I won't let you win this time.

++++++++++++++++++++++++++++++++++++++++++++

+++++++++++++++++++++++++++++++++
| RaiLeff                       |
| Underground__Dora@hotmail.com |
+++++++++++++++++++++++++++++++++

            
            
Suggest correction
Creating personal tab
Creating personal tab
You can edit any tab online and save it as your Personal.

You can edit, replace or remove any tab part or add personal notes – all changes will be seen only by you.

Personal tabs can be accessed anytime from any device, even offline.
Learn more »
Give kudos to tab author, rate the tab!
1 2 3 4 5
comments
print report bad tab
2 comments total.
0 reply
carrotcake 2,027 May 17, 2007 04:06 PM

G|------------------------------------------------------------|
D|---------------754--------------754-------------------------|
A|--5-555-555-55-----5-555-555-55-----------------------------|
E|-----------------------------------333333333333333333333333-|
after you play this two times shouldn't the next two be like this:

G|------------------------------------------------------------|
D|---------------754--------------754-------------------------|
A|--5-555-555-55-----5-555-555-55-----------------------------|
E|-----------------------------------333333555555777777555555-|
that's how I play it

0 reply
RaiLeff 12,922 May 18, 2007 01:47 PM

Ahh well thanx :D

guest
You may want to rate the tab now too:
select rating
Wanna post a correction for this tab? Suggest correction