Oops, an error
Loading. Please wait.

Rain Will Fall bass

version 1
version 1

Whole song

Interactive

468 views 1 this week
1 commentread comment
1 2 3 4 5
1 last vote to show rating
add to favorites
×
Save as Personal and add changes to this tab that will be seen only by you. Learn more ›
×
You can save this tab as Personal to edit and correct it or add notes. All changes will be seen only by you. Learn more »
launch autoscroll
font size
0
reset
guitar tuner
edit
Autoscroll
slow
fast
+/-
esc
set tempo
stop
Author
+++++++++++++++++++++++++++++++
| Silverstein- Rain Will Fall |
+++++++++++++++++++++++++++++++

Tuning: EADG

Intro
1.
G|---------------------------------------|
D|---------------------------------------|
A|-244x--4x-44----------22x--2x-2222-222-|
E|------------00x--0x-00-----------------|

Verse
"It was just another day..."
2.
G|---------------------------------------|
D|---------------------------------------|
A|-244x--4x-44----------22x--2x-2222-222-|--x3
E|------------00x--0x-00-----------------|

"And I coudnt bare to walk another step with this inside..."
3.
G|----------------------------------------|
D|----------------------------------------|
A|-244x--4x-44----------22222222-22222222-|
E|------------00x--0x-00------------------|

Chorus
"The rain will fall..."
4.
G|-------------------------------------------------------------------------|
D|-------------------------------------------------------------------------|
A|-44444444----------22222222-2222-----44444444----------22222222-2x-------|
E|----------00000000--------------4444----------00000000-------------------|

Outro
5.
G|-------|
D|-------|
A|-------|
E|-4~-0~-|

Verse
"There's some things you dont just say..."
6.
G|-------------------------------------------------------------------------|
D|-------------------------------------------------------------------------|
A|-44444444----------22222222-22222222-44444444----------22222222-22222222-|--x2
E|----------00000000----------------------------00000000-------------------|

Chorus
"The rain will fall..."
7.
G|-------------------------------------------------------------------------|
D|-------------------------------------------------------------------------|
A|-44444444----------22222222-2222-----44444444----------22222222-2222-----|
E|----------00000000--------------4444----------00000000--------------4444-|

"This is the last thing left to do..."
8.
G|-------------------------------------------------------------------------|
D|-------------------------------------------------------------------------|
A|-44444444-22222----------------------44444444-22222----------------------|
E|---------------4-2-00000000-22222222---------------4-2-00000000-22222222-|

Outro
"I know I cant be the one..."
9.
G|------------------------------------------------------------------------|
D|------------------------------------------------------------------------|
A|-4-4-4-4--2-2------------------------4-4-4-4--2-2-----------------------|
E|--------------242--0-0-0-0--2-2-2-2---------------242--0-0-0-0--2-2-2-2-|

Bridge
10.
G|-----------------------------------------------------------------------|
D|-----------------------------------------------------------------------|
A|-444x---2x--------------------------44x---22x--------------------------|
E|-------------0x-0022x---4x---0x-2x-0------------0x-0022x--4x---0x-2x-0-|

"Dont be suprised Im gonna let you run away..."
11.
G|-------------------------------------------------------------------------|
D|-------------------------------------------------------------------------|
A|-44444444-222222---------------------44444444-222222---------------------|
E|----------------00-22222222-44444444----------------00-22222222-44444444-|

12.
G|---------------------------------------------------------------------|
D|---------------------------------------------------------------------|
A|-44444444-222222---------------------44444444-222222-----------------|
E|----------------00-22222222-44444444----------------0x-0022~---4~-0~-|

Chorus
"The rain will fall..."
13.
G|-------------------------------------------------------------------------|
D|-------------------------------------------------------------------------|
A|-44444444----------22222222-2222-----44444444----------22222222-2222-----|
E|----------00000000--------------4444----------00000000--------------4444-|

"This is the last thing left to do..."
14.
G|-------------------------------------------------------------------------|
D|-------------------------------------------------------------------------|
A|-44444444-22222----------------------44444444-22222----------------------|
E|---------------4-2-00000000-22222222---------------4-2-00000000-22222222-|

Outro
"I know I cant be the one..."
15.
G|-------------------------------------------------------------------------|
D|-------------------------------------------------------------------------|
A|-4-4-4-4-----------2-2-2-2--2-2------4-4-4-4-----------2-2-2-2--2-2------|
E|----------0-0-0-0---------------4-4-----------0-0-0-0---------------4-4--|

16.
G|-------------------|
D|-------------------|
A|-4~----7~----2~----|
E|-------------------|

Lyrics:

It was just another day
Cars were driving by and people lined the streets
We were walking side by side
But there was something on my mind
And I couldn't bear to walk another step with this inside

The rain will fall and wash it all away
Our fears will call

There's some things you just don't say
But when it's been so long there's just no other way
I can't do this anymore, I can't pretend that I'm not bored
And I don't want to spend the rest of my life out of my control

The rain will fall and wash it all away
Our fears will call and make us run away

This is the last thing left to do
And if there's one things I have learned
You can only lie to yourself for so long
Until it becomes truth

I know I can't be the one left holding the bag
I wish I could not make it hurt so bad

Don't be surprised, Im gonna let you run away
Don't turn around, I'm gonna walk the other way
I'm not going to chase you down the street
I won't chase you, I won't chase you
I won't chase you down the street

+++++++++++++++++++++++++++++++++
| RaiLeff                       |
| Underground__Dora@Hotmail.Com |
+++++++++++++++++++++++++++++++++

            
            
Suggest correction
Creating personal tab
Creating personal tab
You can edit any tab online and save it as your Personal.

You can edit, replace or remove any tab part or add personal notes – all changes will be seen only by you.

Personal tabs can be accessed anytime from any device, even offline.
Learn more »
Give kudos to tab author, rate the tab!
1 2 3 4 5
comments
print report bad tab
1 comment total.
0 reply
carrotcake 2,027 Dec 26, 2007 05:36 PM

Nice job with the two extra tracks #1 contributor.

Keep up the good work!

guest
You may want to rate the tab now too:
select rating
Wanna post a correction for this tab? Suggest correction