Oops, an error
Loading. Please wait.

Sand Will Turn To Glass bass

version 1
version 1

Whole song

Interactive

712 views 1 this week
no commentswrite comment
1 2 3 4 5
3 more votes to show rating
add to favorites
×
Save as Personal and add changes to this tab that will be seen only by you. Learn more ›
×
You can save this tab as Personal to edit and correct it or add notes. All changes will be seen only by you. Learn more »
launch autoscroll
font size
0
reset
guitar tuner
edit
Autoscroll
slow
fast
+/-
esc
set tempo
stop
++++++++++++++++++++++++++++++++++++++++++++
| Silverstein- The Sand Will Turn To Glass |
++++++++++++++++++++++++++++++++++++++++++++

Tuning: Drop C# (C#ADG)

Intro
1.
G |-----------------------------------------|
D |-----------------------------------------|
A |-----------0~-00-00~---------------------|
D#|-0~-00-00~-----------3~-33-33~/5~-55-55~-|

2.
G |-----------------------------------------------|
D |-----------------------------------------------|
A |-----------0~-00-00~---------------------0~----|
D#|-0~-00-00~-----------3~-33-33~/7~-77-77~-------|

Verse
"I cant believe..."
3.
G |------------------------------------------------------------|
D |------------------------------------------------------------|
A |-----------------------xxx00000000-00000000-22222222-222222-|
D#|-7-0~-0x----7-0~-0x-----------------------------------------|

4.
G |--------------------------------------------------------------|
D |--------------------------------------------------------------|
A |-----------------------xxx00000000-00000000-------------------|
D#|-7-0~-0x----7-0~-0x-------------------------77777777-77777777-|

Chorus
"Lies were spoken..."
5.
G |------------------------------------------------------------------------|
D |----------------------------------------------------------------444442--|
A |-------------------00000000-22222222----------------------------------4-|
D#|-00000000-33333333-------------------00000000-33333333-55555555---------|

6.
G |-------------------------------------------------------------------------|
D |-------------------------------------------------------------------------|
A |-------------------00000000-22222222-------------------------------------|
D#|-00000000-33333333-------------------00000000-33333333-77777777-77777777-|

Verse
"Every day she comes..."
7.
G |------------------------------------------------------------|
D |------------------------------------------------------------|
A |-----------------------xxx00000000-00000000-22222222-222222-|
D#|-7-0~-0x----7-0~-0x-----------------------------------------|

8.
G |--------------------------------------------------------------|
D |--------------------------------------------------------------|
A |-----------------------xxx00000000-00000000-------------------|
D#|-7-0~-0x----7-0~-0x-------------------------77777777-77777777-|

Chorus
"Lies were spoken..."
9.
G |------------------------------------------------------------------------|
D |----------------------------------------------------------------444442--|
A |-------------------00000000-22222222----------------------------------4-|
D#|-00000000-33333333-------------------00000000-33333333-55555555---------|

10.
G |-------------------------------------------------------------------------|
D |-------------------------------------------------------------------------|
A |-------------------00000000-22222222-------------------------------------|
D#|-00000000-33333333-------------------00000000-33333333-77777777-77777777-|

11.
G |------------------------|
D |----------6-6-2-4-2-4-6-|
A |------------------------|
D#|-77777777---------------|

Outro
12.
G |------------------------------------------------------------------------|
D |----------------------------------------------------------------444442--|
A |-------------------00000000-22222222----------------------------------4-|
D#|-00000000-33333333-------------------00000000-33333333-55555555---------|

13.
G |-------------------------------------------------------------------------|
D |-------------------------------------------------------------------------|
A |-------------------00000000-22222222-------------------------------------|
D#|-00000000-33333333-------------------00000000-33333333-77777777-77777777-|

Bridge
"Sunshine turns to dark..."
14.
G |------------------------------------------------------------------|
D |------------------------------------------------------------------|
A |-0~-0-0-0-0-0-0-02~-2-2-2-2-2-2-2---------------------------------|
D#|---------------------------------0~-0-0-0-0-0-0-03~-3-3-3-3-3-3-3-|

15.
G |--------------------------------|
D |--------------------------------|
A |-0~-0-0-0-0-0-0-0---------------|
D#|-----------------7~-7-7-7-7-7-7-|

Verse
"I cant believe..."
16.
G |------------------------------------------------------------|
D |------------------------------------------------------------|
A |-----------------------xxx00000000-00000000-22222222-222222-|
D#|-7-0~-0x----7-0~-0x-----------------------------------------|

17.
G |--------------------------------------------------------------|
D |--------------------------------------------------------------|
A |-----------------------xxx00000000-00000000-------------------|
D#|-7-0~-0x----7-0~-0x-------------------------77777777-77777777-|

Chorus
"Lies were spoken..."
18.
G |------------------------------------------------------------------------|
D |----------------------------------------------------------------444442--|
A |-------------------00000000-22222222----------------------------------4-|
D#|-00000000-33333333-------------------00000000-33333333-55555555---------|

19.
G |-------------------------------------------------------------------------|
D |-------------------------------------------------------------------------|
A |-------------------00000000-22222222-------------------------------------|
D#|-00000000-33333333-------------------00000000-33333333-77777777-77777777-|

20.
G |------------------------------|
D |----------6-6-2-4-2-4-6-------|
A |------------------------------|
D#|-77777777---------------0~-0x-|

Lyrics:

I can’t believe, that I can be
Full of so much hate
Another hero dies, the devil lives
The people hide their shame

Lies were spoken
Bonds were broken
Can he ever change?
Turn your back and
Run away as fast as you can
Don’t mark your name

Every day she comes
That’s what it takes
Add the heart to harm
And this for yourself
You shot the only thing you love

Sunshine turns to darkness everyday
The fragile far from honesty
Losing faith

I can’t believe
No sides in love
Guilty hearts can mend
I know myself
I’ve killed him
I’ll do it again

+++++++++++++++++++++++++++++++++
| RaiLeff                       |
| Underground__Dora@Hotmail.Com |
+++++++++++++++++++++++++++++++++

            
            
Suggest correction
Creating personal tab
Creating personal tab
You can edit any tab online and save it as your Personal.

You can edit, replace or remove any tab part or add personal notes – all changes will be seen only by you.

Personal tabs can be accessed anytime from any device, even offline.
Learn more »
Give kudos to tab author, rate the tab!
1 2 3 4 5
comments
print report bad tab
guest
You may want to rate the tab now too:
select rating
Wanna post a correction for this tab? Suggest correction