Oops, an error
Loading. Please wait.

Smile In Your Sleep tab

version 8
2,735 views 1 this week
8 commentsread comments
1 2 3 4 5
x 4
add to favorites
×
Save as Personal and add changes to this tab that will be seen only by you. Learn more ›
×
You can save this tab as Personal to edit and correct it or add notes. All changes will be seen only by you. Learn more »
launch autoscroll
font size
0
reset
how to read this tab
guitar tuner
edit
Autoscroll
slow
fast
+/-
esc
set tempo
stop
Author
Difficulty
Band: Silverstein

Song: Smile In Your Sleep

Standard Tuning: (Eadgbe)

Description: This song is great. It is how I think the song is palyed, and I am 100%
this is right. The song has been around for quite a while now and is easy to play if you
all the note fills from each guitar part. I showed both guitar parts here. so you know 
each guitar is playing and my band Untitled Offense, when we jam to it. The Lead guitar
plays tap in the beginning i didnt show the tapping pattern here, but it is going on but 
you add it and play these following notes in the intro you will be fine. Well Heres the tab.

`````````````````````````````````````````````````````````````````````````````

Intro

g2
|----------------------------------|---------------------------------|
|----------------------------------|---------------------------------|
|-------------12-11----14----11-12-|------------12-11----14----11-12-|
|----14----------------------------|---14----------------------------|
|-------15-14-------14----14-------|14----15-14-------14----14-------|
|-12-------------------------------|---------------------------------|


|----------------------------------------------------------|
|----------------------------------------------------------|
|-----------9---------11-------9--9-12-9-11-9-9-------9-11-|
|----12--------12-----------12------------------12-12------|
|-10----10---------10----10--------------------------------|
|----------------------------------------------------------| x3


g1 (enters at verse)
(wah)
|----------------------------------------------|
|----------------------------------------------|
|----------------------------------------------|
|----------------------------------------------|
|----------------------------------------------|
|-3~-----------7~-------------3-------------5~-| x2

Chorus

g1
|---------|   -----------------------------------------| |--------|
|---------|   -----------------------------------------| |--------|
|-9-9-9-9-|   ---------9-9-9-9-9-9-9-9-9-9-9-9-9-9-9-9-| |5-5-5-5-|
|-9-9-9-9-|   -5-5-5-5-9-9-9-9-9-9-9-9-9-9-9-9-9-9-9-9-| |5-5-5-5-|
|-7-7-7-7-|   -5-5-5-5-7-7-7-7-7-7-7-7-7-7-7-7-7-7-7-7-| |3-3-3-3-|
|-7-7-7-7-|x3 -3-3-3-3-7-7-7-7-7-7-7-7-7-7-7-7-7-7-7-7-| |3-3-3-3-| x7

|-----------------------------------------------------------------------|
|-----------------------------------------------------------------------|
|-------9-9-9-9-9-9-9-9-9-9-9-9-9-9-9-9-9-9-9-9-9-9-9-9-9-9-9-9-9-9-9-9-|
|-------9-9-9-9-9-9-9-9-9-9-9-9-9-9-9-9-9-9-9-9-9-9-9-9-9-9-9-9-9-9-9-9-|
|-----2-7-7-7-7-7-7-7-7-7-7-7-7-7-7-7-7-7-7-7-7-7-7-7-7-7-7-7-7-7-7-7-7-|
|-0-0-0-7-7-7-7-7-7-7-7-7-7-7-7-7-7-7-7-7-7-7-7-7-7-7-7-7-7-7-7-7-7-7-7-|
  * *

 -----------------------------------------------------------------|
 -----------------------------------------------------------------|
 -5-5-5-5-5-5-5-5-5-5-5-5-5-5-5-5-5-5-5-5-5-5-5-5-5-5-5-5-5-5-5-5-|
 -5-5-5-5-5-5-5-5-5-5-5-5-5-5-5-5-5-5-5-5-5-5-5-5-5-5-5-5-5-5-5-5-|
 -3-3-3-3-3-3-3-3-3-3-3-3-3-3-3-3-3-3-3-3-3-3-3-3-3-3-3-3-3-3-3-3-|
 -3-3-3-3-3-3-3-3-3-3-3-3-3-3-3-3-3-3-3-3-3-3-3-3-3-3-3-3-3-3-3-3-|


g2
|---------|   -----------------------------------------| |--------|
|---------|   -----------------------------------------| |--------|
|-9-9-9-9-|   ---------9-9-9-9-9-9-9-9-9-9-9-9-9-9-9-9-| |5-5-5-5-|
|-9-9-9-9-|   -5-5-5-5-9-9-9-9-9-9-9-9-9-9-9-9-9-9-9-9-| |5-5-5-5-|
|-7-7-7-7-|   -5-5-5-5-7-7-7-7-7-7-7-7-7-7-7-7-7-7-7-7-| |3-3-3-3-|
|-7-7-7-7-|x3 -3-3-3-3-7-7-7-7-7-7-7-7-7-7-7-7-7-7-7-7-| |3-3-3-3-| x7


|------------------|   ---------------------------|
|------------------|   ---------------------------|
|------------------|   ---------------------------|
|------------------|   ---------------------------|
|-----14--14-12-12-|   -10--10-9-9--10--10-9-9----|
|------------------|x4 ---------------------------|


|-------------------------------------15~-|
|-----------------------------------------|
|-----------------------------------------|
|-----12------12------12------12----------|
|-9-10---9-10----9-10----9-10----9-10-----|
|-----------------------------------------|

Verse 2

g1
|--------------------------------------|
|---------    --------    --------    -|
|---------    --------    --------    -|
|-2-2-2-2-    --------    --------    -|
|---------    -3-3-3-3    -5-5-5-5    -|
|----------x8----------x4----------x4--| x2

g2
|----------------------------------|---------------------------------|
|----------------------------------|---------------------------------|
|-------------12-11----14----11-12-|------------12-11----14----11-12-|
|----14----------------------------|---14----------------------------|
|-------15-14-------14----14-------|14----15-14-------14----14-------|
|-12-------------------------------|---------------------------------|


|----------------------------------------------------------|
|----------------------------------------------------------|
|-----------9---------11-------9--9-12-9-11-9-9-------9-11-|
|----12--------12-----------12------------------12-12------|
|-10----10---------10----10--------------------------------|
|----------------------------------------------------------| x2

Chorus

g1
|---------|   -----------------------------------------| |--------|
|---------|   -----------------------------------------| |--------|
|-9-9-9-9-|   ---------9-9-9-9-9-9-9-9-9-9-9-9-9-9-9-9-| |5-5-5-5-|
|-9-9-9-9-|   -5-5-5-5-9-9-9-9-9-9-9-9-9-9-9-9-9-9-9-9-| |5-5-5-5-|
|-7-7-7-7-|   -5-5-5-5-7-7-7-7-7-7-7-7-7-7-7-7-7-7-7-7-| |3-3-3-3-|
|-7-7-7-7-|x3 -3-3-3-3-7-7-7-7-7-7-7-7-7-7-7-7-7-7-7-7-| |3-3-3-3-| x7

|-----------------------------------------------------------------------|
|-----------------------------------------------------------------------|
|-------9-9-9-9-9-9-9-9-9-9-9-9-9-9-9-9-9-9-9-9-9-9-9-9-9-9-9-9-9-9-9-9-|
|-------9-9-9-9-9-9-9-9-9-9-9-9-9-9-9-9-9-9-9-9-9-9-9-9-9-9-9-9-9-9-9-9-|
|-----2-7-7-7-7-7-7-7-7-7-7-7-7-7-7-7-7-7-7-7-7-7-7-7-7-7-7-7-7-7-7-7-7-|
|-0-0-0-7-7-7-7-7-7-7-7-7-7-7-7-7-7-7-7-7-7-7-7-7-7-7-7-7-7-7-7-7-7-7-7-|
  * *

 -----------------------------------------------------------------|
 -----------------------------------------------------------------|
 -5-5-5-5-5-5-5-5-5-5-5-5-5-5-5-5-5-5-5-5-5-5-5-5-5-5-5-5-5-5-5-5-|
 -5-5-5-5-5-5-5-5-5-5-5-5-5-5-5-5-5-5-5-5-5-5-5-5-5-5-5-5-5-5-5-5-|
 -3-3-3-3-3-3-3-3-3-3-3-3-3-3-3-3-3-3-3-3-3-3-3-3-3-3-3-3-3-3-3-3-|
 -3-3-3-3-3-3-3-3-3-3-3-3-3-3-3-3-3-3-3-3-3-3-3-3-3-3-3-3-3-3-3-3-|


g2
|---------|   -----------------------------------------| |--------|
|---------|   -----------------------------------------| |--------|
|-9-9-9-9-|   ---------9-9-9-9-9-9-9-9-9-9-9-9-9-9-9-9-| |5-5-5-5-|
|-9-9-9-9-|   -5-5-5-5-9-9-9-9-9-9-9-9-9-9-9-9-9-9-9-9-| |5-5-5-5-|
|-7-7-7-7-|   -5-5-5-5-7-7-7-7-7-7-7-7-7-7-7-7-7-7-7-7-| |3-3-3-3-|
|-7-7-7-7-|x3 -3-3-3-3-7-7-7-7-7-7-7-7-7-7-7-7-7-7-7-7-| |3-3-3-3-| x7


|------------------|   ---------------------------|
|------------------|   ---------------------------|
|------------------|   ---------------------------|
|------------------|   ---------------------------|
|-----14--14-12-12-|   -10--10-9-9--10--10-9-9----|
|------------------|x4 ---------------------------|


|-------------------------------------15~-|
|-----------------------------------------|
|-----------------------------------------|
|-----12------12------12------12----------|
|-9-10---9-10----9-10----9-10----9-10-----|
|-----------------------------------------|

Bridge

g1
|--------------------------------|---------------------------------|
|--------------------------------|---------------------------------|
|--------------------------------|---5-5--555555------7-7--55555-4-|
|-2-2--222222------2-2--222222---|---5-5--555555------5-5--33333-2-|
|-2-2--222222------2-2--222222---|---3-3--333333------5-5--33333-2-|
|-0-0--000000------0-0--000000---|---------------------------------|


|--------------------------------|---------------------------------|
|--------------------------------|---------------------------------|
|--------------------------------|---5-5--555555------7-7--55555-4-|
|-2-2--222222------2-2--222222---|---5-5--555555------5-5--33333-2-|
|-2-2--222222------2-2--222222---|---3-3--333333------5-5--33333-2-|
|-0-0--000000------0-0--000000---|---------------------------------|

g2
|--------------------------------|---------------------------------|
|--------------------------------|---------------------------------|
|--------------------------------|---5-5--555555------7-7--55555-4-|
|-2-2--222222------2-2--222222---|---5-5--555555------5-5--33333-2-|
|-2-2--222222------2-2--222222---|---3-3--333333------5-5--33333-2-|
|-0-0--000000------0-0--000000---|---------------------------------|


|------------15-15-14-14---------|
|------------------------15-15---|
|--------------------------------|
|--------------------------------|
|--------------------------------|
|--------------------------------| x3


g2
|----------------------------------------------------------|
|----------------------------------------------------------|
|----------------------------------------------------------|
|-14-17-16-14-17-16-14-17-16-14-17-16-17-19-17-16-17-19-21-|
|----------------------------------------------------------|
|----------------------------------------------------------|

Interlude

g2
|-----------------------------------------------|
|-----------------------------------------------|
|------------12----12--------14-------14-----14-|
|-----------------------------------------------|
|---14-15-14--------------14-------14-----------|
|12-------------12-----12-------12-------12-----|


|------------------------------------------------|
|------------------------------------------------|
|------16-------16----16-------16-------16-----16|
|------------------------------------------------|
|---14-------14-------------14-------14----------|
|12-------12-------12----12-------12--------12---|


|-----------------------------------------------|
|-----------------------------------------------|
|-----12------12---12------11------11----11-----|
|-----------------------------------------------|
|--10------10-----------10------10--------------|
|8-------8-------8----8-------8-------8---------|


|------------------------------------------------|
|------------------------------------------------|
|-----12------12---12----------------------------|
|---------------------------14------14----14-----|
|--12------12------------12------12--------------|
|10------10------10---10------10-------10--------|


THATS ALL Yoou HAVE TO KNOW FOR THE SONG Later please rate and enjoi...

            
            
Suggest correction
Creating personal tab
Creating personal tab
You can edit any tab online and save it as your Personal.

You can edit, replace or remove any tab part or add personal notes – all changes will be seen only by you.

Personal tabs can be accessed anytime from any device, even offline.
Learn more »
comments
print report bad tab
8 comments total. Showing first comments.
0 reply
fret13 1,031 May 16, 2007 11:49 AM

you are SO CLOSE i have this 100% tabbed out but im too lazy to submit it. I have to give you credit though so ill give you 5*

0 reply
wongacaster 90 Jul 28, 2007 05:46 AM

i dont think the intro is right dude.
but yeah

0 reply
mikko 9119 102 Oct 02, 2007 07:33 AM

the bridge thing with this part
|------------15-15-14-14---------|
|------------------------15-15---|
|--------------------------------|
|--------------------------------|
|--------------------------------|
|--------------------------------|
its supposed to be
|--------------------------------|
|-----7-7------------------------|
|-5-5-----7-7--------------------|
|--------------------------------|
|--------------------------------|
|--------------------------------|
those are natural harmonics
or at least thats how its played live

guest
You may want to rate the tab now too:
select rating
Wanna post a correction for this tab? Suggest correction