Oops, an error
Loading. Please wait.

The Afterglow tab

version 1
version 1

Whole song

598 views 66 this week
no commentswrite comment
1 2 3 4 5
3 more votes to show rating
add to favorites
×
Save as Personal and add changes to this tab that will be seen only by you. Learn more ›
×
You can save this tab as Personal to edit and correct it or add notes. All changes will be seen only by you. Learn more »
launch autoscroll
font size
0
reset
how to read this tab
guitar tuner
edit
Autoscroll
slow
fast
+/-
esc
set tempo
stop
Tabbed by: Joshua Garcia (joshuag523@aol.com)

Tabs for the song: The Afterglow by Silverstein
Please rate and let me know if you have any corrections. Thank you.


Tuning: Drop C (C G C F A D)


Guitar 1 - Left Speaker
Guitar 2 - Right Speaker


[Intro]
Guitar 1:
D||-------------------------------------------------------------------|
A||-------------------------------------------------------------------|
F||------------------5-5-5-5-5-5-5-5-9-9-9-9-9-9-9-9-9-9-9-9-9-9-9-9--|
C||--7-7-7-7-7-7-7-7-3-3-3-3-3-3-3-3-7-7-7-7-7-7-7-7-7-7-7-7-7-7-7-7--|
G||--5-5-5-5-5-5-5-5--------------------------------------------------|
C||-------------------------------------------------------------------|


D||---------------------------------------------------------|
A||---------------------------------------------------------|
F||--10-10-10-10-10-10-10-10-9-9-9-9-9-9-9-9----------------|
C||--8--8--8--8--8--8--8--8--7-7-7-7-7-7-7-7-5-5-5-5-5-5-5--|
G||------------------------------------------3-3-3-3-3-3-3--|
C||---------------------------------------------------------|


Guitar 2:
D||-------------------------------------------------------------------|
A||--6-6-6-6-6-6-6-6-1-1-1-1-1-1-1-1-5-5-5-5-5-5-5-5-6-6-5-5-5-5-5-5--|
F||--7-7-7-7-7-7-7-7-2-2-2-2-2-2-2-2-5-5-5-5-5-5-5-5-5-5-5-5-5-5-5-5--|
C||-------------------------------------------------------------------|
G||-------------------------------------------------------------------|
C||-------------------------------------------------------------------|


D||----------------------------------------------------------------|
A||------------------10-10-10-10-10-10-10-10-8--8--8--8--8--8--8---|
F||--5-5-5-5-5-5-5-5-10-10-10-10-10-10-10-10-10-10-10-10-10-10-10--|
C||--5-5-5-5-5-5-5-5-----------------------------------------------|
G||----------------------------------------------------------------|
C||----------------------------------------------------------------|



[Pre-Verse]
Guitar 1:
D||-------------------------------------------------------------------|
A||-------------------------------------------------------------------|
F||------------------5-5-5-5-5-5-5-5-9-9-9-9-9-9-9-9-9-9-9-9-9-9-9-9--|
C||--7-7-7-7-7-7-7-7-3-3-3-3-3-3-3-3-7-7-7-7-7-7-7-7-7-7-7-7-7-7-7-7--|
G||--5-5-5-5-5-5-5-5--------------------------------------------------|
C||-------------------------------------------------------------------|


D||---------------------------------------------------------------------------|
A||---------------------------------------------------------------------------|
F||--10-10-10-10-10-10-10-10-9-9-9-9-9-9-9-9----------------------------------|
C||--8--8--8--8--8--8--8--8--7-7-7-7-7-7-7-7-5-5-5-5-5-5-5-5-5-5-5-5-5-5-5-5--|
G||------------------------------------------3-3-3-3-3-3-3-3-3-3-3-3-3-3-3-3--|
C||---------------------------------------------------------------------------|


Guitar 2:
D||-------------------------------------------------------------------|
A||--6-6-6-6-6-6-6-6-1-1-1-1-1-1-1-1-5-5-5-5-5-5-5-5-5-5-5-5-5-5-5-5--|
F||--7-7-7-7-7-7-7-7-2-2-2-2-2-2-2-2-5-5-5-5-5-5-5-5-5-5-5-5-5-5-5-5--|
C||-------------------------------------------------------------------|
G||-------------------------------------------------------------------|
C||-------------------------------------------------------------------|


D||-------------------------------------------------------------------------------------------|
A||------------------10-10-10-10-10-10-10-10-8--8--8--8--8--8--8--8--8--8--8--8--8--8--8--8---|
F||--5-5-5-5-5-5-5-5-10-10-10-10-10-10-10-10-10-10-10-10-10-10-10-10-10-10-10-10-10-10-10-10--|
C||--5-5-5-5-5-5-5-5--------------------------------------------------------------------------|
G||-------------------------------------------------------------------------------------------|
C||-------------------------------------------------------------------------------------------|


Guitar 3 (Dub):
D||-------------------------------------------------------------------|
A||-------------------------------------------------------------------|
F||--7-7-7-7-7-7-7-7--------------------------------------------------|
C||--7-7-7-7-7-7-7-7-3-3-3-3-3-3-3-3-7-7-7-7-7-7-7-7-7-7-7-7-7-7-7-7--|
G||--5-5-5-5-5-5-5-5-3-3-3-3-3-3-3-3-7-7-7-7-7-7-7-7-7-7-7-7-7-7-7-7--|
C||------------------3-3-3-3-3-3-3-3-7-7-7-7-7-7-7-7-7-7-7-7-7-7-7-7--|


D||-------------------------------------------------------------------|
A||-------------------------------------------------------------------|
F||------------------7-7-7-7-7-7-7-7-5-5-5-5-5-5-5-5-5-5-5-5-5-5-5-5--|
C||--5-5-5-5-5-5-5-5-7-7-7-7-7-7-7-7-5-5-5-5-5-5-5-5-5-5-5-5-5-5-5-5--|
G||--5-5-5-5-5-5-5-5-5-5-5-5-5-5-5-5-3-3-3-3-3-3-3-3-3-3-3-3-3-3-3-3--|
C||--5-5-5-5-5-5-5-5--------------------------------------------------|



[Verse]
Guitar 1/2:
D||-------------------------------------------------------------------|
A||-------------------------------------------------------------------|
F||-------------------------------------------------------------------|
C||--7-7-7-7-7-7-7-7-7------------------------------------------------|
G||--5-5-5-5-5-5-5-5-5-3-3-3-3-3-3-3-8-8-8-8-8-8-8-8-8-3-3-3-3-3-3-3--|
C||--------------------3-3-3-3-3-3-3-8-8-8-8-8-8-8-8-8-3-3-3-3-3-3-3--|
     . . . . . . . . . . . . . . . . . . . . . . . . . . . . . . . .


D||----------------------------------------------------------------------|
A||----------------------------------------------------------------------|
F||----------------------------------------------------------------------|
C||------------------7-7-7-7-7-7-7-7-------------------------------------|
G||--7-7-7-7-7-7-7-7-5-5-5-5-5-5-5-5-8-8-8-8-8-8-8-8-8-8-8-8-8-10-10-10--|
C||--7-7-7-7-7-7-7-7-----------------8-8-8-8-8-8-8-8-8-8-8-8-8-10-10-10--|
     . . . . . . . . . . . . . . . . . . . . . . . . . . . . .


Guitar 1:
D||-------------------------------------------------------------------|
A||-------------------------------------------------------------------|
F||-------------------------------------------------------------------|
C||--7-7-7-7-7-7-7-7-7------------------------------------------------|
G||--5-5-5-5-5-5-5-5-5-3-3-3-3-3-3-3-8-8-8-8-8-8-8-8-8-3-3-3-3-3-3-3--|
C||--------------------3-3-3-3-3-3-3-8-8-8-8-8-8-8-8-8-3-3-3-3-3-3-3--|
     . . . . . . . . . . . . . . . . . . . . . . . . . . . . . . . .


D||----------------------------------------------------------------------|
A||----------------------------------------------------------------------|
F||----------------------------------------------------------------------|
C||------------------7-7-7-7-7-7-7-7-------------------------------------|
G||--7-7-7-7-7-7-7-7-5-5-5-5-5-5-5-5-8-8-8-8-8-8-8-8-8-8-8-8-8/10-10-10--|
C||--7-7-7-7-7-7-7-7-----------------8-8-8-8-8-8-8-8-8-8-8-8-8/10-10-10--|
     . . . . . . . . . . . . . . . . . . . .


Guitar 2:
D||------------------------------------------------------------------------------------------------|
A||------------------------------------------------------------------------------------------------|
F||------------------------0-------------0-------------0--------------------------------0-0-0-0----|
C||---------------------------------5/7-----------5/7----------------------------------------------|
G||--7h8-8-8-8-8-8-8-7h8-8----8-8-8---------8-8-8---------8-8-8-5-5-5-5-7-7-7-7-8-8-8-8---------8--|
C||------------------------------------------------------------------------------------------------|



[Pre-Chorus]
Guitar 1/2:
D||---------------|
A||---------------|
F||---------------|
C||--12------p10--|
G||--8------------|
C||--8------------|



[Chorus]
Guitar 1:
D||-------------------------------------------------------------------|
A||-------------------------------------------------------------------|
F||------------------5-5-5-5-5-5-5-5-9-9-9-9-9-9-9-9-9-9-9-9-9-9-9-9--|
C||--7-7-7-7-7-7-7-7-3-3-3-3-3-3-3-3-7-7-7-7-7-7-7-7-7-7-7-7-7-7-7-7--|
G||--5-5-5-5-5-5-5-5--------------------------------------------------|
C||-------------------------------------------------------------------|


D||---------------------------------------------------------------------------|
A||---------------------------------------------------------------------------|
F||--10-10-10-10-10-10-10-10-9-9-9-9-9-9-9-9----------------------------------|
C||--8--8--8--8--8--8--8--8--7-7-7-7-7-7-7-7-5-5-5-5-5-5-5-5-5-5-5-5-5-5-5-5--| [x2]
G||------------------------------------------3-3-3-3-3-3-3-3-3-3-3-3-3-3-3-3--|
C||---------------------------------------------------------------------------|


Guitar 2:
D||-------------------------------------------------------------------|
A||--6-6-6-6-6-6-6-6-1-1-1-1-1-1-1-1-5-5-5-5-5-5-5-5-5-5-5-5-5-5-5-5--|
F||--7-7-7-7-7-7-7-7-2-2-2-2-2-2-2-2-5-5-5-5-5-5-5-5-5-5-5-5-5-5-5-5--|
C||-------------------------------------------------------------------|
G||-------------------------------------------------------------------|
C||-------------------------------------------------------------------|


D||-------------------------------------------------------------------------------------------|
A||------------------10-10-10-10-10-10-10-10-8--8--8--8--8--8--8--8--8--8--8--8--8--8--8--8---|
F||--5-5-5-5-5-5-5-5-10-10-10-10-10-10-10-10-10-10-10-10-10-10-10-10-10-10-10-10-10-10-10-10--|
C||--5-5-5-5-5-5-5-5--------------------------------------------------------------------------| [x2]
G||-------------------------------------------------------------------------------------------|
C||-------------------------------------------------------------------------------------------|


Guitar 3 (Dub):
D||-------------------------------------------------------------------|
A||-------------------------------------------------------------------|
F||--7-7-7-7-7-7-7-7--------------------------------------------------|
C||--7-7-7-7-7-7-7-7-3-3-3-3-3-3-3-3-7-7-7-7-7-7-7-7-7-7-7-7-7-7-7-7--|
G||--5-5-5-5-5-5-5-5-3-3-3-3-3-3-3-3-7-7-7-7-7-7-7-7-7-7-7-7-7-7-7-7--|
C||------------------3-3-3-3-3-3-3-3-7-7-7-7-7-7-7-7-7-7-7-7-7-7-7-7--|


D||-------------------------------------------------------------------|
A||-------------------------------------------------------------------|
F||------------------7-7-7-7-7-7-7-7-5-5-5-5-5-5-5-5-5-5-5-5-5-5-5-5--|
C||--5-5-5-5-5-5-5-5-7-7-7-7-7-7-7-7-5-5-5-5-5-5-5-5-5-5-5-5-5-5-5-5--| [x2]
G||--5-5-5-5-5-5-5-5-5-5-5-5-5-5-5-5-3-3-3-3-3-3-3-3-3-3-3-3-3-3-3-3--|
C||--5-5-5-5-5-5-5-5--------------------------------------------------|



[Verse]
Guitar 1/2:
D||--------------------------------------------------------------------------|
A||--------------------------------------------------------------------------|
F||--------------------------------------------------------------------------|
C||--7-7-7-7-7---------------------------------------------------------------|
G||--5-5-5-5-5---------3-3-3---3-----8-8-8-8-8---------3-3-3---3-----3---/---|
C||--------------------3-3-3---3-----8-8-8-8-8---------3-3-3---3-----3---/---|
     . . . . .         . . .   .     . . . . .         . . .   .


D||--------------------------------------------------------------------------|
A||--------------------------------------------------------------------------|
F||--------------------------------------------------------------------------|
C||--------------------7-7-7-7-7---------------------------------------------|
G||--7-7-7-7-7---------5-5-5-5-5---------8-8-8-8-8-8-8-8-8-8-8-8-8-10-10-10--|
C||--7-7-7-7-7---------------------------8-8-8-8-8-8-8-8-8-8-8-8-8-10-10-10--|
     . . . . .         . . . . .         . . . . . . . . . . . . .


Guitar 1:
D||--------------------------------------------------------------------------|
A||--------------------------------------------------------------------------|
F||--------------------------------------------------------------------------|
C||--7-7-7-7-7---------------------------------------------------------------|
G||--5-5-5-5-5---------3-3-3---3-----8-8-8-8-8---------3-3-3---3-----3---/---|
C||--------------------3-3-3---3-----8-8-8-8-8---------3-3-3---3-----3---/---|
     . . . . .         . . .   .     . . . . .         . . .   .


D||--------------------------------------------------------------------------|
A||--------------------------------------------------------------------------|
F||--------------------------------------------------------------------------|
C||--------------------7-7-7-7-7---------------------------------------------|
G||--7-7-7-7-7---------5-5-5-5-5---------8-8-8-8-8-8-8-8-8-8-8-8-8/10-10-10--|
C||--7-7-7-7-7---------------------------8-8-8-8-8-8-8-8-8-8-8-8-8/10-10-10--|
     . . . . .         . . . . .         . . . .


Guitar 2:
D||------------------------------------------------------------------------------------------------|
A||------------------------------------------------------------------------------------------------|
F||------------------------0-------------0-------------0--------------------------------0-0-0-0----|
C||---------------------------------5/7-----------5/7----------------------------------------------|
G||--7h8-8-8-8-8-8-8-7h8-8----8-8-8---------8-8-8---------8-8-8-5-5-5-5-7-7-7-7-8-8-8-8---------8--|
C||------------------------------------------------------------------------------------------------|



[Pre-Chorus]
Guitar 1:
D||----------------------------------------|
A||----------------------------------------|
F||----------------------------------------|
C||--12--------5--------10--------8----10--|
G||--8---------3--------7---------8----10--|
C||--8---------3--------7---------8----10--|


Guitar 2:
D||----------------------------------------|
A||----------------------------------------|
F||--7---------5-------/9------------------|
C||--x---------x-------/x------------------|
G||--5---------3-------/7------------------|
C||----------------------------------------|



[Chorus]
Guitar 1:
D||-------------------------------------------------------------------|
A||-------------------------------------------------------------------|
F||------------------5-5-5-5-5-5-5-5-9-9-9-9-9-9-9-9-9-9-9-9-9-9-9-9--|
C||--7-7-7-7-7-7-7-7-3-3-3-3-3-3-3-3-7-7-7-7-7-7-7-7-7-7-7-7-7-7-7-7--|
G||--5-5-5-5-5-5-5-5--------------------------------------------------|
C||-------------------------------------------------------------------|


D||---------------------------------------------------------------------------|
A||---------------------------------------------------------------------------|
F||--10-10-10-10-10-10-10-10-9-9-9-9-9-9-9-9----------------------------------|
C||--8--8--8--8--8--8--8--8--7-7-7-7-7-7-7-7-5-5-5-5-5-5-5-5-5-5-5-5-5-5-5-5--| [x2]
G||------------------------------------------3-3-3-3-3-3-3-3-3-3-3-3-3-3-3-3--|
C||---------------------------------------------------------------------------|


Guitar 2:
D||-------------------------------------------------------------------|
A||--6-6-6-6-6-6-6-6-1-1-1-1-1-1-1-1-5-5-5-5-5-5-5-5-5-5-5-5-5-5-5-5--|
F||--7-7-7-7-7-7-7-7-2-2-2-2-2-2-2-2-5-5-5-5-5-5-5-5-5-5-5-5-5-5-5-5--|
C||-------------------------------------------------------------------|
G||-------------------------------------------------------------------|
C||-------------------------------------------------------------------|


D||-------------------------------------------------------------------------------------------|
A||------------------10-10-10-10-10-10-10-10-8--8--8--8--8--8--8--8--8--8--8--8--8--8--8--8---|
F||--5-5-5-5-5-5-5-5-10-10-10-10-10-10-10-10-10-10-10-10-10-10-10-10-10-10-10-10-10-10-10-10--|
C||--5-5-5-5-5-5-5-5--------------------------------------------------------------------------| [x2]
G||-------------------------------------------------------------------------------------------|
C||-------------------------------------------------------------------------------------------|


Guitar 3 (Dub):
D||-------------------------------------------------------------------|
A||-------------------------------------------------------------------|
F||--7-7-7-7-7-7-7-7--------------------------------------------------|
C||--7-7-7-7-7-7-7-7-3-3-3-3-3-3-3-3-7-7-7-7-7-7-7-7-7-7-7-7-7-7-7-7--|
G||--5-5-5-5-5-5-5-5-3-3-3-3-3-3-3-3-7-7-7-7-7-7-7-7-7-7-7-7-7-7-7-7--|
C||------------------3-3-3-3-3-3-3-3-7-7-7-7-7-7-7-7-7-7-7-7-7-7-7-7--|


D||-------------------------------------------------------------------|
A||-------------------------------------------------------------------|
F||------------------7-7-7-7-7-7-7-7-5-5-5-5-5-5-5-5-5-5-5-5-5-5-5-5--|
C||--5-5-5-5-5-5-5-5-7-7-7-7-7-7-7-7-5-5-5-5-5-5-5-5-5-5-5-5-5-5-5-5--| [x2]
G||--5-5-5-5-5-5-5-5-5-5-5-5-5-5-5-5-3-3-3-3-3-3-3-3-3-3-3-3-3-3-3-3--|
C||--5-5-5-5-5-5-5-5--------------------------------------------------|



[Bridge]
Guitar 1:
D||----------------------------------------------------------------------------------------|
A||----------------------------------------------------------------------------------------|
F||--10-10-10-10-10-10-10-7-7-7-7-5-5-5-5-12-12-12-12-10-10-10-10-14-14-14-14-10-10-10-10--|
C||--x--x--x--x--x--x--x--x-x-x-x-x-x-x-x-x--x--x--x--x--x--x--x--x--x--x--x--x--x--x--x---|
G||--8--8--8--8--8--8--8--5-5-5-5-3-3-3-3-10-10-10-10-8--8--8--8--12-12-12-12-8--8--8--8---|
C||----------------------------------------------------------------------------------------|


D||-----------------------------------------------------------------------------------|
A||-----------------------------------------------------------------------------------|
F||--10-10-10-10-10-10-10-7-7-7-7-5-5-5-5-12-12-12-12-10-10-10-10-9-9-9-9-9-10-10-10--|
C||--x--x--x--x--x--x--x--x-x-x-x-x-x-x-x-x--x--x--x--x--x--x--x--x-x-x-x-x-x--x--x---| [x2]
G||--8--8--8--8--8--8--8--5-5-5-5-3-3-3-3-10-10-10-10-8--8--8--8--7-7-7-7-7-8--8--8---|
C||-----------------------------------------------------------------------------------|


Guitar 2:
D||-----------------------------------------|----------------------------------------|
A||-----------------------------------------|----------------------------------------|
F||-----------------------------------------|----------------------------------------|
C||--12--------5--------10--------0---------|--12--------5--------10-----------------|
G||--8---------3--------7---------0---------|--8---------3--------7------------------|
C||--8---------3--------7---------0---------|--8---------3--------7------------------|


D||-----------------------------------------|----------------------------------------|
A||-----------------------------------------|----------------------------------------|
F||-----------------------------------------|----------------------------------------|
C||--12--------5--------10--------12----10--|--12--------5--------10-----------------|
G||--8---------3--------7---------12----10--|--8---------3--------7------------------|
C||--8---------3--------7---------12----10--|--8---------3--------7------------------|



Interlude
Guitar 1:
D||-----------------------------------------------------------------------|
A||-----------------------------------------------------------------------|
F||--10-10-10-10-10-10-10-10-9-9-9-9-9-9-9-9------------------------------|
C||--8--8--8--8--8--8--8--8--7-7-7-7-7-7-7-7-5-5-5-5-5-5-5-5-5-5-5-5-5-5--|
G||------------------------------------------3-3-3-3-3-3-3-3-3-3-3-3-3-3--|
C||-----------------------------------------------------------------------|


Guitar 2:
D||-------------------------------------------------------------------------------------|
A||------------------10-10-10-10-10-10-10-10-8--8--8--8--8--8--8--8--8--8--8--8--8--10--|
F||--5-5-5-5-5-5-5-5-10-10-10-10-10-10-10-10-10-10-10-10-10-10-10-10-10-10-10-10-10-10--|
C||--5-5-5-5-5-5-5-5--------------------------------------------------------------------|
G||-------------------------------------------------------------------------------------|
C||-------------------------------------------------------------------------------------|



[Chorus]
Guitar 1:
D||-------------------------------------------------------------------|
A||-------------------------------------------------------------------|
F||------------------5-5-5-5-5-5-5-5-9-9-9-9-9-9-9-9-9-9-9-9-9-9-9-9--|
C||--7-7-7-7-7-7-7-7-3-3-3-3-3-3-3-3-7-7-7-7-7-7-7-7-7-7-7-7-7-7-7-7--|
G||--5-5-5-5-5-5-5-5--------------------------------------------------|
C||-------------------------------------------------------------------|


D||---------------------------------------------------------------------------|
A||---------------------------------------------------------------------------|
F||--10-10-10-10-10-10-10-10-9-9-9-9-9-9-9-9----------------------------------|
C||--8--8--8--8--8--8--8--8--7-7-7-7-7-7-7-7-5-5-5-5-5-5-5-5-5-5-5-5-5-5-5-5--| [x2]
G||------------------------------------------3-3-3-3-3-3-3-3-3-3-3-3-3-3-3-3--|
C||---------------------------------------------------------------------------|


Guitar 2:
D||-------------------------------------------------------------------|
A||--6-6-6-6-6-6-6-6-1-1-1-1-1-1-1-1-5-5-5-5-5-5-5-5-5-5-5-5-5-5-5-5--|
F||--7-7-7-7-7-7-7-7-2-2-2-2-2-2-2-2-5-5-5-5-5-5-5-5-5-5-5-5-5-5-5-5--|
C||-------------------------------------------------------------------|
G||-------------------------------------------------------------------|
C||-------------------------------------------------------------------|


D||-------------------------------------------------------------------------------------------|
A||------------------10-10-10-10-10-10-10-10-8--8--8--8--8--8--8--8--8--8--8--8--8--8--8--8---|
F||--5-5-5-5-5-5-5-5-10-10-10-10-10-10-10-10-10-10-10-10-10-10-10-10-10-10-10-10-10-10-10-10--|
C||--5-5-5-5-5-5-5-5--------------------------------------------------------------------------| [x2]
G||-------------------------------------------------------------------------------------------|
C||-------------------------------------------------------------------------------------------|


Guitar 3 (Dub):
D||-------------------------------------------------------------------|
A||-------------------------------------------------------------------|
F||--7-7-7-7-7-7-7-7--------------------------------------------------|
C||--7-7-7-7-7-7-7-7-3-3-3-3-3-3-3-3-7-7-7-7-7-7-7-7-7-7-7-7-7-7-7-7--|
G||--5-5-5-5-5-5-5-5-3-3-3-3-3-3-3-3-7-7-7-7-7-7-7-7-7-7-7-7-7-7-7-7--|
C||------------------3-3-3-3-3-3-3-3-7-7-7-7-7-7-7-7-7-7-7-7-7-7-7-7--|


D||-------------------------------------------------------------------|
A||-------------------------------------------------------------------|
F||------------------7-7-7-7-7-7-7-7-5-5-5-5-5-5-5-5-5-5-5-5-5-5-5-5--|
C||--5-5-5-5-5-5-5-5-7-7-7-7-7-7-7-7-5-5-5-5-5-5-5-5-5-5-5-5-5-5-5-5--| [x2]
G||--5-5-5-5-5-5-5-5-5-5-5-5-5-5-5-5-3-3-3-3-3-3-3-3-3-3-3-3-3-3-3-3--|
C||--5-5-5-5-5-5-5-5--------------------------------------------------|



[Outro]
Guitar 1:
D||---------------------------------------------------------------------------|
A||---------------------------------------------------------------------------|
F||--10-10-10-10-10-10-10-10-9-9-9-9-9-9-9-9----------------------------------|
C||--8--8--8--8--8--8--8--8--7-7-7-7-7-7-7-7-5-5-5-5-5-5-5-5-5-5-5-5-5-5-5-5--|
G||------------------------------------------3-3-3-3-3-3-3-3-3-3-3-3-3-3-3-3--|
C||---------------------------------------------------------------------------|


D||-----------------------------------------------------------|
A||-----------------------------------------------------------|
F||--10-10-10-10-10-10-10-10-9-9-9-9-9-9-9-9------------------|
C||--8--8--8--8--8--8--8--8--7-7-7-7-7-7-7-7-5-5-5-5-5-5-5-5--|
G||------------------------------------------3-3-3-3-3-3-3-3--|
C||-----------------------------------------------------------|


Guitar 2:
D||---------------------------------------------------------------------------------------------------|
A||--13-13-13-13-13-13-13-13-13-13-13-13-13-13-13-13-13-13-13-13-13-13-13-13-13-13-13-13-11-11-10-10--|
F||--10-10-10-10-10-10-10-10-10-10-10-10-10-10-10-10-10-10-10-10-10-10-10-10-10-10-10-10-10-10-10-10--|
C||---------------------------------------------------------------------------------------------------|
G||---------------------------------------------------------------------------------------------------|
C||---------------------------------------------------------------------------------------------------|


D||---------------------------------------------------------------------------|
A||--13-13-13-13-13-13-13-13-13-13-13-13-13-13-13-13-13-13-13-13-13-13-13-13--|
F||--10-10-10-10-10-10-10-10-10-10-10-10-10-10-10-10-10-10-10-10-10-10-10-10--|
C||---------------------------------------------------------------------------|
G||---------------------------------------------------------------------------|
C||---------------------------------------------------------------------------|


Guitar 3 (Dub):
D||-------------------------------------------------------------------|
A||-------------------------------------------------------------------|
F||------------------7-7-7-7-7-7-7-7-5-5-5-5-5-5-5-5-5-5-5-5-5-5-5-5--|
C||--5-5-5-5-5-5-5-5-7-7-7-7-7-7-7-7-5-5-5-5-5-5-5-5-5-5-5-5-5-5-5-5--|
G||--5-5-5-5-5-5-5-5-5-5-5-5-5-5-5-5-3-3-3-3-3-3-3-3-3-3-3-3-3-3-3-3--|
C||--5-5-5-5-5-5-5-5--------------------------------------------------|


D||---------------------------------------------------|
A||---------------------------------------------------|
F||------------------7-7-7-7-7-7-7-7-5-5-5-5-5-5-5-5--|
C||--5-5-5-5-5-5-5-5-7-7-7-7-7-7-7-7-5-5-5-5-5-5-5-5--|
G||--5-5-5-5-5-5-5-5-5-5-5-5-5-5-5-5-3-3-3-3-3-3-3-3--|
C||--5-5-5-5-5-5-5-5----------------------------------|





*****************************
-Tablature Legend-

 h   hammer-on
 p   pull-off
 b   bend
 pb  pre-bend
 r   release bend
 ~   hold / vibrato
 .   palm mute
 /   slide up
 \   slide down
 *   pinch harmonic
 '   natural harmonic
 x   mute note
 T   tap

*****************************

            
            
Suggest correction
Creating personal tab
Creating personal tab
You can edit any tab online and save it as your Personal.

You can edit, replace or remove any tab part or add personal notes – all changes will be seen only by you.

Personal tabs can be accessed anytime from any device, even offline.
Learn more »
Give kudos to tab author, rate the tab!
1 2 3 4 5
comments
print report bad tab
guest
You may want to rate the tab now too:
select rating
Wanna post a correction for this tab? Suggest correction