Oops, an error
Loading. Please wait.

The Continual Condition bass

292 views 1 this week
1 commentread comment
1 2 3 4 5
1 last vote to show rating
add to favorites
×
Save as Personal and add changes to this tab that will be seen only by you. Learn more ›
×
You can save this tab as Personal to edit and correct it or add notes. All changes will be seen only by you. Learn more »
launch autoscroll
font size
0
reset
guitar tuner
edit
Autoscroll
slow
fast
+/-
esc
set tempo
stop
Artist: Silverstein
Song: The Continual Condition
Album: I Am Alive In Everything I Touch

Please rate and comment any corrections


Tuning: Drop C# (C# G# C# F#)


Intro
Just Guitar

(0:14)
F#||--------------------------------------------------------------|
C#||--------------------------------------------------------------|
G#||--------------------------------------------------------------|
C#||--0-----12\-----0-7-10-8---7-5-7-8-----8-----3-5-5-3-5-0-3-5--|


F#||--------------------------------------------------------------|
C#||--------------------------------------------------------------|
G#||--------------------------------------------------------------|
C#||--0-----12\-----0-7-10-8---7-5-7-8-----8----x-3---2---3-/-10--|


F#||--------------------------------------------------------------|
C#||--------------------------------------------------------------|
G#||--------------------------------------------------------------|
C#||--12------0-----0-7-10-8---7-5-7-8-----8-----3-5-5-3-5-0-3-5--|


F#||--------------------------------------------------------------|
C#||--------------------------------------------------------------|
G#||--------------------------------------------------------------|
C#||--0-----12\-----0-7-10-8---7-5-7-8-----8----x-3---2---3-/-10--|



Verse
F#||-------------------------------------------------------------------|
C#||-------------------------------------------------------------------|
G#||--3h5-5-------------------------5p3-3---3-----------3--------------|
C#||----------0-----------0--------------------------------------------|
    

F#||---------------------------------------------------|
C#||---------------------------------------------------|
G#||--0h1-1---1-----------1---------5p3-3---3---1-5-8--|
C#||---------------------------------------------------|


Pre-Chorus
F#||---------------------------------------------------|
C#||---------------------------------------------------|
G#||--8h5-5-------3h5-5-------5p3-3---3-5p3-3---3---3--|
C#||----------0-----------0----------------------------|
    

F#||---------------------------------------------|
C#||---------------------------------------------|
G#||--0h1-1---1-0h1-1---1-----5p3-3---3---3-5-8--|
C#||---------------------------------------------|



Chorus
F#||----------------------------------------------------|
C#||----------------------------------------------------|
G#||----------------------------------------------------|
C#||--0---0-0-0-0---0---0-0------8---8-8-8-8---8---8-8--|


F#||--------------------------------------------|
C#||--------------------------------------------|
G#||--------------------------------------------|
C#||--10---10-10---10-10----10-10---10-10-10----|


F#||-----------------------------------|
C#||-----------------------------------|
G#||-----------------------------------|
C#||--8-----8---x-7-----7-----7-7-7-7--|


F#||----------------------------------------------------|
C#||----------------------------------------------------|
G#||----------------------------------------------------|
C#||--0---0-0-0-0---0---0-0------8---8-8-8-8---8---8-8--|


F#||--------------------------------------------|
C#||--------------------------------------------|
G#||--------------------------------------------|
C#||--10---10-10---10-10----10-10---10-10-10----|


F#||-----------------------------------|
C#||-----------------------------------|
G#||-----------------------------------|
C#||--8-8-8-8---x-7-7-7-7---x-7-7-7-7--|



Pre-Verse
F#||--------------------------------------------------------------|
C#||--------------------------------------------------------------|
G#||--------------------------------------------------------------|
C#||--0-----12\-----0-7-10-8---7-5-7-8-----8-----3-5-5-3-5-0-3-5--|


F#||--------------------------------------------------------------|
C#||--------------------------------------------------------------|
G#||--------------------------------------------------------------|
C#||--0-----12\-----0-7-10-8---7-5-7-8-----8----x-3---2---3-/-10--|



Verse
F#||-------------------------------------------------------------------|
C#||-------------------------------------------------------------------|
G#||--3h5-5-------------------------5p3-3---3-----------3--------------|
C#||----------0-----------0--------------------------------------------|
    

F#||---------------------------------------------------|
C#||---------------------------------------------------|
G#||--0h1-1---1-----------1---------5p3-3---3---1-5-8--|
C#||---------------------------------------------------|


Pre-Chorus
F#||---------------------------------------------------|
C#||---------------------------------------------------|
G#||--8h5-5-------3h5-5-------5p3-3---3-5p3-3---3---3--|
C#||----------0-----------0----------------------------|
    

F#||---------------------------------------------|
C#||---------------------------------------------|
G#||--0h1-1---1-0h1-1---1-----5p3-3---3---3-5-8--|
C#||---------------------------------------------|


Chorus
F#||----------------------------------------------------|
C#||----------------------------------------------------|
G#||----------------------------------------------------|
C#||--0---0-0-0-0---0---0-0------8---8-8-8-8---8---8-8--|


F#||--------------------------------------------|
C#||--------------------------------------------|
G#||--------------------------------------------|
C#||--10---10-10---10-10----10-10---10-10-10----|


F#||-----------------------------------|
C#||-----------------------------------|
G#||-----------------------------------|
C#||--8-----8---x-7-----7-----7-7-7-7--|


F#||----------------------------------------------------|
C#||----------------------------------------------------|
G#||----------------------------------------------------|
C#||--0---0-0-0-0---0---0-0------8---8-8-8-8---8---8-8--|


F#||--------------------------------------------|
C#||--------------------------------------------|
G#||--------------------------------------------|
C#||--10---10-10---10-10----10-10---10-10-10----|


F#||-----------------------------------|
C#||-----------------------------------|
G#||-----------------------------------|
C#||--8-8-8-8---x-7-7-7-7---x-7-7-7-7--|


Breakdown
F#||-------|
C#||-------|
G#||-------|
C#||--0~---| x2

F#||----------------------|
C#||----------------------|
G#||-----5---------8------|
C#||--0-0--0--0h7h8-0h3h5-|
                            This riff X2
F#||----------------------|
C#||----------------------|
G#||-----5----------------|
C#||--0-0--0--8h7-5-3-035-|

Interlude
Just guitar

(2:40)
F#||-------------------------------------------------------------------|
C#||-------------------------------------------------------------------|
G#||--5-5-5-5-5-5-5-5-5-5-5-5-5-5-5-5-1-1-1-1-1-1-1-1-1-1-1-1-1-1-1-1--|
C#||-------------------------------------------------------------------|

F#||--------------------------------------------------------------|
C#||--------------------------------------------------------------|
G#||--3-3-3-3-3-3-3-3-3-3-3-3-3-3-3-3--13-13-13-13--12~--\\\\\----|
C#||--------------------------------------------------------------|



Chorus
F#||----------------------------------------------------|
C#||----------------------------------------------------|
G#||----------------------------------------------------|
C#||--0---0-0-0-0---0---0-0------8---8-8-8-8---8---8-8--|


F#||--------------------------------------------|
C#||--------------------------------------------|
G#||--------------------------------------------|
C#||--10---10-10---10-10----10-10---10-10-10----|


F#||-----------------------------------|
C#||-----------------------------------|
G#||-----------------------------------|
C#||--8-----8---x-7-----7-----7-7-7-7--|


F#||----------------------------------------------------|
C#||----------------------------------------------------|
G#||----------------------------------------------------|
C#||--0---0-0-0-0---0---0-0------8---8-8-8-8---8---8-8--|


F#||--------------------------------------------|
C#||--------------------------------------------|
G#||--------------------------------------------|
C#||--10---10-10---10-10----10-10---10-10-10----|


F#||--------------------------------------------------|
C#||--------------------------------------------------|
G#||--13-13-13-13-----12-12-12-12-----12-12-12-12-----|
C#||--------------------------------------------------|



Outro
F#||--------------------------------------------------------------|
C#||--------------------------------------------------------------|
G#||--------------------------------------------------------------|
C#||--0-----12\-----0-7-10-8---7-5-7-8-----8-----3-5-5-3-5-0-3-5--|


F#||--------------------------------------------------------------|
C#||--------------------------------------------------------------|
G#||--------------------------------------------------------------|
C#||--0-----12\-----0-7-10-8---7-5-7-8-----8----x-3---2---3-/-10--|


F#||----------------|
C#||----------------|
G#||----------------|
C#||--12------0-----|




            
            
Suggest correction
Creating personal tab
Creating personal tab
You can edit any tab online and save it as your Personal.

You can edit, replace or remove any tab part or add personal notes – all changes will be seen only by you.

Personal tabs can be accessed anytime from any device, even offline.
Learn more »
Give kudos to tab author, rate the tab!
1 2 3 4 5
comments
print report bad tab
1 comment total.
+1 reply
Joshua Garcia [tm] 5,600 Jun 02, 2015 05:36 PM, edited at 09:37 pm

I like how you essentially just copied and pasted the lower half of my tab for, not just this tab, but a majority of your bass tabs for this album. -_-

I'll try to take that as a compliment though. And I guess you did do some work yourself.

guest
You may want to rate the tab now too:
select rating
Wanna post a correction for this tab? Suggest correction