Oops, an error
Loading. Please wait.

Whiplash tab

version 2
version 2

Whole song

Interactive

181 views 1 this week
2 commentsread comments
1 2 3 4 5
1 last vote to show rating
add to favorites
×
Save as Personal and add changes to this tab that will be seen only by you. Learn more ›
×
You can save this tab as Personal to edit and correct it or add notes. All changes will be seen only by you. Learn more »
launch autoscroll
font size
0
reset
how to read this tab
guitar tuner
edit
Autoscroll
slow
fast
+/-
esc
set tempo
stop
[Silverstein]
[Music Video]
[Whiplash]

Tuning: B Gb B E Ab Db
Playthrough:
 https://www.youtube.com/watch?v=XbQqO2gHx2g


[Riff 1a] - [00:00] - [00:32]
- -----------------------------------------------------------------|
- -------6---------------5-----3-----------------------------------|
- --------------------5------------------3---------------2-------0-|
- ----7-------------------------------5---------------3-------1----|
- -5---------------3-----------------------------------------------|
- ---------------------------------5---------------3-------1-------|

- -----------------------------------------------------------------|
- -------6---------------5-----3-----------------------------------|
- --------------------5------------------3---------------7-------9-|
- ----7-------------------------------5---------------8-------10---|
- -5---------------3-----------------------------------------------|
- ---------------------------------5---------------8-------10------|

- -----------------------------------------------------------------|
- -------6---------------5-----3-----------------------------------|
- --------------------5------------------3---------------2-------0-|
- ----7-------------------------------5---------------3-------1----|
- -5---------------3-----------------------------------------------|
- ---------------------------------5---------------3-------1-------|

- -----------------------------------------------------------------|
- -------6---------------5-----3-----------------------------------|
- --------------------5------------------3-------------------------|
- ----7-------------------------------5----------------------------|
- -5---------------3-----------------------------------------------|
- ---------------------------------5-------------------------------|

[Riff 1b] - [00:00] - [00:32]
- -----------------------------------------------------------------|
- -----------------------------------------------------------------|
- -----------------------------------------------------------------|
- -----------------------------------------------------------------|
- -----------------------------------------------------------------|
- -----------------------------------------------------------------|

- -----------------------------------------------------------------|
- -----------------------------------------------------------------|
- -----------------------------------------------------------------|
- -----------------------------------------------------------------|
- -----------------------------------------------------------------|
- -12(x16)---------10(x16)---------5(x16)----------8(x8)---10(x8)--|

- -----------------------------------------------------------------|
- -----------------------------------------------------------------|
- -----------------------------------------------------------------|
- -----------------------------------------------------------------|
- -----------------------------------------------------------------|
- -12(x16)---------10(x16)---------5(x16)----------3(x8)---1(x8)---|

- -----------------------------------------------------------------|
- -----------------------------------------------------------------|
- -----------------------------------------------------------------|
- -----------------------------------------------------------------|
- -----------------------------------------------------------------|
- -12(x16)---------10(x16)---------5(x16)----------8(x8)---10(x8)--|

[Riff 1c] - [00:08] - [00:16] & [00:24] - [00:32--------------------|
- ------------5-------------------------------5---------------------|
- ----5--6-8-----8--------------------5--6-8-----8---------6--------|
- -5-------------------------------5--------------------------------|
- ------------------------------------------------------------------|
- ------------------------------------------------------------------|
- ------------------------------------------------------------------|

[Riff 2] - [00:32] - [00:40]
- -----------------------------------------------------------------------------------------|
- -----------------------------------------------------------------------------------------|
- -----------------------------------------------------------------------------------------|
- -----------------------------------------------------------------------------------------|
- -----------------------------------------------------------------------------------------|
- -12-12-12-12br-----0-----12----0--12h13p12p0-12-12-12-12br-----0-----12----0--12h13p12p0-|

- -----------------------------------------------------------------------------------------|
- -----------------------------------------------------------------------------------------|
- -----------------------------------------------------------------------------------------|
- -----------------------------------------------------------------------------------------|
- -----------------------------------------------------------------------------------------|
- -12-12-12-12br-----0-----12----0--12h13p12p0-12-12-12-12br-----0-------------------------|

[Riff 3, Guitar 1 & 2] - [00:40] - [00:56]
- -----------------------------------------------------------------|
- ---------------------------------------------------------x-5---5-|
- ---------------------------------------------------------x-5---5-|
- -8---8---8-8---8-----8---8-7---5-----5---5-5---5-----5---x-3---3-|
- -x---x---x-x---x-----x---x-x---x-----x---x-x---x-----x-----------|
- -8---8---8-8---8-----8---8-7---5-----5---5-5---5-----5-----------|
-
- -8---8-8-8-8-8-8-8-8-8-8-8-5---5---------------------------------|
- -6---6-6-6-6-6-6-6-6-6-6-6-6---6-----6-6-6-6-6-6-6-6-6-6-6-8---8-|
- -------------------------------------7-7-7-7-7-7-7-7-7-7-7-7---7-|
- -----------------------------------------------------------------|
- -----------------------------------------------------------------|
- -----------------------------------------------------------------|


- -----------------------------------------------------------------|
- -------------------------x-5---5---------------------------------|
- -------------------------x-5---5---------------------------------|
- -------------------------x-3---3-------------------------7-7-7-7-|
- ---------------------------------------------------------x-x-x-x-|
- -----0---0-0---0-----0---------------0---0-0---0-----0---7-7-7-7-|
-
- ---------------------------------------------------------5-5-5-5-|
- -----6-6-6-6-6-6-6-6-6-6-6-8---8-----6-6-6-6-6-6-6-6-6-6-6-6-6-6-|
- -----7-7-7-7-7-7-7-7-7-7-7-7---7-----7-7-7-7-7-7-7-7-7-7---------|
- -----------------------------------------------------------------|
- -----------------------------------------------------------------|
- -----------------------------------------------------------------|


- -----------------------------------------------------------------|
- ---------------------------------------------------------x-5---5-|
- ---------------------------------------------------------x-5---5-|
- -8---8---8-8---8-----8---8-7---5-----5---5-5---5-----5---x-3---3-|
- -x---x---x-x---x-----x---x-x---x-----x---x-x---x-----x-----------|
- -8---8---8-8---8-----8---8-7---5-----5---5-5---5-----5-----------|
-
- -8---8-8-8-8-8-8-8-8-8-8-8-5---5---------------------------------|
- -6---6-6-6-6-6-6-6-6-6-6-6-6---6-----6-6-6-6-6-6-6-6-6-6-6-8---8-|
- -------------------------------------7-7-7-7-7-7-7-7-7-7-7-7---7-|
- -----------------------------------------------------------------|
- -----------------------------------------------------------------|
- -----------------------------------------------------------------|


- ---------------------------------------------------------------------|
- -------------------------x-5---5-------------------------------------|
- -------------------------x-5---5-------------------------------------|
- -------------------------x-3---3-------------------------------------|
- ------------------------------------------------------------------15-|
- -----0---0-0---0-----0---------------0---0-0---0-----0---12h13h15----|
-
- ---------------------------------------------------------5-----------|
- -----6-6-6-6-6-6-6-6-6-6-6-8---8-----6-6-6-6-6-6-6-6-6-6----8--6-----|
- -----7-7-7-7-7-7-7-7-7-7-7-7---7-----7-7-7-7-7-7-7-7-7-7----------9--|
- ---------------------------------------------------------------------|
- ---------------------------------------------------------------------|
- ---------------------------------------------------------------------|


[Riff 3a] - [00:56] - [01:12]
- -----------------------------------------------------------------|
- -------6---------------5-----3-----------------------------------|
- --------------------5------------------3---------------2-------0-|
- ----7-------------------------------5---------------3-------1----|
- -5---------------3-----------------------------------------------|
- ---------------------------------5---------------3-------1-------|

- -----------------------------------------------------------------|
- -------6---------------5-----3-----------------------------------|
- --------------------5------------------3-------------------------|
- ----7-------------------------------5----------------------------|
- -5---------------3-----------------------------------------------|
- ---------------------------------5-------------------------------|

[Riff 3b] - [00:56] - [01:12]
- -----------------------------------------------------------------|
- -----------------------------------------------------------------|
- -----------------------------------------------------------------|
- -----------------------------------------------------------------|
- -----------------------------------------------------------------|
- -12(x16)---------10(x16)---------5(x16)----------3(x8)---1(x8)---|

- -----------------------------------------------------------------|
- -----------------------------------------------------------------|
- -----------------------------------------------------------------|
- -----------------------------------------------------------------|
- -----------------------------------------------------------------|
- -12(x16)---------10(x16)---------5(x16)----------8(x8)---10(x8)--|

[Riff 3c] - [01:04] - [01:12]
- ------------5-------------------------------5--------------------|
- ----5--6-8-----8--------------------5--6-8-----8---------6-------|
- -5-------------------------------5-------------------------------|
- -----------------------------------------------------------------|
- -----------------------------------------------------------------|
- -----------------------------------------------------------------|

[Riff 4] - [01:12] - [01:20]
- -----------------------------------------------------------------------------------------|
- -----------------------------------------------------------------------------------------|
- -----------------------------------------------------------------------------------------|
- -----------------------------------------------------------------------------------------|
- -----------------------------------------------------------------------------------------|
- -12-12-12-12br-----0-----12----0--12h13p12p0-12-12-12-12br-----0-----12----0--12h13p12p0-|

- -----------------------------------------------------------------------------------------|
- -----------------------------------------------------------------------------------------|
- -----------------------------------------------------------------------------------------|
- -----------------------------------------------------------------------------------------|
- --------------------------------------------------------------------------------------15-|
- -12-12-12-12br-----0-----12----0--12h13p12p0-12-12-12-12br-----0-------------12h13h15----|

[Riff 5, Guitar 1 & 2] - [01:20] - [01:36]
- -----------------------------------------------------------------|
- ---------------------------------------------------------x-5---5-|
- ---------------------------------------------------------x-5---5-|
- -8---8---8-8---8-----8---8-7---5-----5---5-5---5-----5---x-3---3-|
- -x---x---x-x---x-----x---x-x---x-----x---x-x---x-----x-----------|
- -8---8---8-8---8-----8---8-7---5-----5---5-5---5-----5-----------|
-
- -8---8-8-8-8-8-8-8-8-8-8-8-5---5---------------------------------|
- -6---6-6-6-6-6-6-6-6-6-6-6-6---6-----6-6-6-6-6-6-6-6-6-6-6-8---8-|
- -------------------------------------7-7-7-7-7-7-7-7-7-7-7-7---7-|
- -----------------------------------------------------------------|
- -----------------------------------------------------------------|
- -----------------------------------------------------------------|


- -----------------------------------------------------------------|
- -------------------------x-5---5---------------------------------|
- -------------------------x-5---5---------------------------------|
- -------------------------x-3---3-------------------------7-7-7-7-|
- ---------------------------------------------------------x-x-x-x-|
- -----0---0-0---0-----0---------------0---0-0---0-----0---7-7-7-7-|
-
- ---------------------------------------------------------5-5-5-5-|
- -----6-6-6-6-6-6-6-6-6-6-6-8---8-----6-6-6-6-6-6-6-6-6-6-6-6-6-6-|
- -----7-7-7-7-7-7-7-7-7-7-7-7---7-----7-7-7-7-7-7-7-7-7-7---------|
- -----------------------------------------------------------------|
- -----------------------------------------------------------------|
- -----------------------------------------------------------------|


- -----------------------------------------------------------------|
- ---------------------------------------------------------x-5---5-|
- ---------------------------------------------------------x-5---5-|
- -8---8---8-8---8-----8---8-7---5-----5---5-5---5-----5---x-3---3-|
- -x---x---x-x---x-----x---x-x---x-----x---x-x---x-----x-----------|
- -8---8---8-8---8-----8---8-7---5-----5---5-5---5-----5-----------|
-
- -8---8-8-8-8-8-8-8-8-8-8-8-5---5---------------------------------|
- -6---6-6-6-6-6-6-6-6-6-6-6-6---6-----6-6-6-6-6-6-6-6-6-6-6-8---8-|
- -------------------------------------7-7-7-7-7-7-7-7-7-7-7-7---7-|
- -----------------------------------------------------------------|
- -----------------------------------------------------------------|
- -----------------------------------------------------------------|


- -----------------------------------------------------------------|
- -------------------------x-5---5---------------------------------|
- -------------------------x-5---5---------------------------------|
- -------------------------x-3---3---------------------------------|
- -----------------------------------------------------------------|
- -----0---0-0---0-----0---------------0---0-0---0-0---------------|
-
- -----------------------------------------------------------------|
- -----6-6-6-6-6-6-6-6-6-6-6-8---8-----6-6-6-6-6-6-6---------------|
- -----7-7-7-7-7-7-7-7-7-7-7-7---7-----7-7-7-7-7-7-7---------------|
- -----------------------------------------------------------------|
- -----------------------------------------------------------------|
- -----------------------------------------------------------------|


[Riff 6, Guitar 1 & 2] - [01:36] - [01:52]
- -----------------------------------------------------------------|
- -6---6---6---6---6---6---6---6---6---5---5---5---5---5---5---5---|
- -7---7---7---7---7---7---7---7---7---5---5---5---5---5---5---5---|
- -8---8---8---8---8---8---8---8---8---7---7---7---7---7---7---7---|
- -----------------------------------------------------------------|
- -----------------------------------------------------------------|
-
- -----------------------------------------------------------------|
- -----------------------------------------------------------------|
- -----------------------------------------------------------------|
- -8-----8-----8---8-------------------5-----5-----5-----3-----5---|
- -x-----x-----x---x-------------------x-----x-----x-----x-----x---|
- -8-----8-----8---8-------------------5-----5-----5-----3-----5---|


- -----------------------------------------------------------------|
- -10--10--10--10--10--10--10--10--10--8---8---8---8---8---8---8---|
- -10--10--10--10--10--10--10--10--10--9---9---9---9---9---9---9---|
- -12--12--12--12--12--12--12--12--12--10--10--10--10--10--10--10--|
- -----------------------------------------------------------------|
- -----------------------------------------------------------------|
-
- -----------------------------------------------------------------|
- -----------------------------------------------------------------|
- -----------------------------------------------------------------|
- -12----12----12--12------------------7-----7-----7-----5-----7---|
- -x-----x-----x---x-------------------x-----x-----x-----x-----x---|
- -12----12----12--12------------------7-----7-----7-----5-----7---|


- -----------------------------------------------------------------|
- -6---6---6---6---6---6---6---6---6---5---5---5---5---5---5---5---|
- -7---7---7---7---7---7---7---7---7---5---5---5---5---5---5---5---|
- -8---8---8---8---8---8---8---8---8---7---7---7---7---7---7---7---|
- -----------------------------------------------------------------|
- -----------------------------------------------------------------|
-
- -----------------------------------------------------------------|
- -----------------------------------------------------------------|
- -----------------------------------------------------------------|
- -8-----8-----8---8-------------------5-----5-----5-----3-----5---|
- -x-----x-----x---x-------------------x-----x-----x-----x-----x---|
- -8-----8-----8---8-------------------5-----5-----5-----3-----5---|


- -----------------------------------------------------------------|
- -10--10--10--10--10--10--10--10--10--10--10--10--10--10--10--10--|
- -10--10--10--10--10--10--10--10--10--10--10--10--10--10--10--10--|
- -12--12--12--12--12--12--12--12--12--12--12--12--12--12--12--12--|
- -----------------------------------------------------------------|
- -----------------------------------------------------------------|
-
- -----------------------------------------------------------------|
- -----------------------------------------------------------------|
- -----------------------------------------------------------------|
- -7-----7-----7---7-------------------7-----7-----7---7-7-7---7---|
- -5-----5-----5---5-------------------5-----5-----5---5-5-5---5---|
- -0-----0-----0---0-------------------0-----0-----0---0-0-0---0---|


[Riff 7] - [01:52] - [02:00]
- -----------------------------------------------------------------------------------------|
- -----------------------------------------------------------------------------------------|
- -----------------------------------------------------------------------------------------|
- -----------------------------------------------------------------------------------------|
- -----------------------------------------------------------------------------------------|
- -12-12-12-12br-----0-----12----0--12h13p12p0-12-12-12-12br-----0-----12----0--12h13p12p0-|

- -----------------------------------------------------------------------------------------|
- -----------------------------------------------------------------------------------------|
- -----------------------------------------------------------------------------------------|
- -----------------------------------------------------------------------------------------|
- ------------------------------------------------------------------8h10-------------------|
- -12-12-12-12br-----0-----12----0--12h13p12p0-12-12-12-12br-----0-------7h8--\------------|

[Riff 8] - [02:00] - [02:18]
- -----------------------------------------------------------------------------------------|
- -----------------------------------------------------------------------------------------|
- -----------------------------------------------------------------------------------------|
- -----------------------------------------------------------------------------------------|
- -----------------------------------------------------------------------------------------|
- -12-12-12-12br-----0-----12----0--12h13p12p0-12-12-12-12br-----0-----12----0--12h13p12p0-|

- -------------------------------------------------------------------------------------------|
- -------------------------------------------------------------------------------------------|
- -------------------------------------------------------------------------------------------|
- -------------------------------------------------------------------------------------------|
- -------------3----------------------------------------------------------------8h10---------|
- -------------0-----------12----0--12h13p12p0-12-12-12-12br-----0-----12----0-------7h8--\--|

- -----------------------------------------------------------------------------------------|
- -----------------------------------------------------------------------------------------|
- -----------------------------------------------------------------------------------------|
- -----------------------------------------------------------------------------------------|
- -----------------------------------------------------------------------------------------|
- -------------0-----------12----0--12h13p12p0-12-12-12-12br-----0-----12----0--12h13p12p0-|

- -------------------------------------------------------------------------------------------|
- -------------------------------------------------------------------------------------------|
- -------------------------------------------------------------------------------------------|
- -------------------------------------------------------------------------------------------|
- -------------3----------------------------------------------------------------8h10---------|
- -------------0-----------12----0--12h13p12p0-12-12-12-12br-----0-----12----0-------7h8--\--|

- ---------------------------------------------|
- ---------------------------------------------|
- ---------------------------------------------|
- ---------------------3-----------7-----------|
- ---------5-----------x-----------x-----------|
- ---------0-----------3-----------7-----------|

[Riff 9, Guitar 1 & 2] - [02:18] - [02:34]
- -----------------------------------------------------------------|
- ---------------------------------------------------------x-5---5-|
- ---------------------------------------------------------x-5---5-|
- -8-------\-----------------------------------------------x-3---3-|
- -x---------------------------------------------------------------|
- -8-------\-------------------------------------------------------|
-
- -8---8-8-8-8-8-8-8-8-8-8-8-5---5---------------------------------|
- -6---6-6-6-6-6-6-6-6-6-6-6-6---6-----6-6-6-6-6-6-6-6-6-6-6-8---8-|
- -------------------------------------7-7-7-7-7-7-7-7-7-7-7-7---7-|
- -----------------------------------------------------------------|
- -----------------------------------------------------------------|
- -----------------------------------------------------------------|


- -----------------------------------------------------------------|
- -------------------------x-5---5---------------------------------|
- -------------------------x-5---5---------------------------------|
- -------------------------x-3---3-------------------------7-7-7-7-|
- ---------------------------------------------------------x-x-x-x-|
- -----0---0-0---0-----0---------------0---0-0---0-----0---7-7-7-7-|
-
- ---------------------------------------------------------5-5-5-5-|
- -----6-6-6-6-6-6-6-6-6-6-6-8---8-----6-6-6-6-6-6-6-6-6-6-6-6-6-6-|
- -----7-7-7-7-7-7-7-7-7-7-7-7---7-----7-7-7-7-7-7-7-7-7-7---------|
- -----------------------------------------------------------------|
- -----------------------------------------------------------------|
- -----------------------------------------------------------------|


- -----------------------------------------------------------------|
- ---------------------------------------------------------x-5---5-|
- ---------------------------------------------------------x-5---5-|
- -8---8---8-8---8-----8---8-7---5-----5---5-5---5-----5---x-3---3-|
- -x---x---x-x---x-----x---x-x---x-----x---x-x---x-----x-----------|
- -8---8---8-8---8-----8---8-7---5-----5---5-5---5-----5-----------|
-
- -8---8-8-8-8-8-8-8-8-8-8-8-5---5---------------------------------|
- -6---6-6-6-6-6-6-6-6-6-6-6-6---6-----6-6-6-6-6-6-6-6-6-6-6-8---8-|
- -------------------------------------7-7-7-7-7-7-7-7-7-7-7-7---7-|
- -----------------------------------------------------------------|
- -----------------------------------------------------------------|
- -----------------------------------------------------------------|


- -----------------------------------------------------------------|
- -------------------------x-5---5---------------------------------|
- -------------------------x-5---5---------------------------------|
- -------------------------x-3---3---------------------------------|
- -----------------------------------------------------------------|
- -----0---0-0---0-----0---------------0---0-0---0-0---------------|
-
- -----------------------------------------------------------------|
- -----6-6-6-6-6-6-6-6-6-6-6-8---8-----6-6-6-6-6-6-6---------------|
- -----7-7-7-7-7-7-7-7-7-7-7-7---7-----7-7-7-7-7-7-7---------------|
- -----------------------------------------------------------------|
- -----------------------------------------------------------------|
- -----------------------------------------------------------------|

[Riff 6, Guitar 1 & 2] - [02:34] - [02:50]

[Riff10] - [02:50] - [02:54]
- -----------------------------------------------------------------------------------------|
- -----------------------------------------------------------------------------------------|
- -----------------------------------------------------------------------------------------|
- -----------------------------------------------------------------------------------------|
- -----------------------------------------------------------------------------------------|
- -12-12-12-12br-----0-----12----0--12h13p12p0-12-12-12-12br-----0-----0-------------------|

[Symbols]

PM... Palm Mute notes with (...) under them
AP... Alternate Pick notes with (...) under them
h     Hammer On
p     Pull Off
[ ]   Harmonic
/     Slide Up
\     Slide Down
x     Dead Note
b     Bend
hb    Hold Bend
pb    Pre-Bend
r     Release Bend
(x )  Play Notes x amount of times
~     Let Ring
\\\   Pick Slide Down
///   Pick Slide Up
/ 3 \ Notes are triplets (3 notes in the space of two)
w\    Whammy Bar Down
w/    Whammy Bar Up
wh    Whammy Bar Hold
T     Right Hand Tap
L     Left Hand Tap

:)

            
            
Suggest correction
Creating personal tab
Creating personal tab
You can edit any tab online and save it as your Personal.

You can edit, replace or remove any tab part or add personal notes – all changes will be seen only by you.

Personal tabs can be accessed anytime from any device, even offline.
Learn more »
Give kudos to tab author, rate the tab!
1 2 3 4 5
comments
print report bad tab
2 comments total.
0 reply
eramcrom 20 Jul 08, 2017 01:38 PM

I honrstly think this is a decent tab but the chorus (riff c) seems really off. And confusing. Good cover though.

0 reply
vppark2 1,820 Jul 08, 2017 06:15 PM

Yeah, I was confused on that part myself when I tried playing it.

guest
You may want to rate the tab now too:
select rating
Wanna post a correction for this tab? Suggest correction