Oops, an error
Loading. Please wait.

Your Sword Versus My Dagger bass

version 3
version 3

Whole song

Interactive

5,935 views 6 this week
4 commentsread comments
1 2 3 4 5
x 8
add to favorites
×
Save as Personal and add changes to this tab that will be seen only by you. Learn more ›
×
You can save this tab as Personal to edit and correct it or add notes. All changes will be seen only by you. Learn more »
launch autoscroll
font size
0
reset
guitar tuner
edit
Autoscroll
slow
fast
+/-
esc
set tempo
stop
Artist: Silverstein
song: Your Sword Vs. My Dagger
Album: Discover the Waterfront
Tabbed:!GabbaGabba!
Email: caca_king_89@yahoo.com


	I dont know to much about the strumming but those are the notes. Especially
the little break-down part. Billy also plays open Ds when the Guitar plays that little 
hammer-on riff in the intro and chorus. I saw it live and u can even hear it if u krank up 
the bass. Just try to follow the drumms and u'll be alright. Questions, comments, threats, 
E-mail/message me. Enjoi.



| /  slide up
| \  slide down
| h  hammer-on
| p  pull-off
| ~  vibrato
| +  harmonic
| x  Mute note



Tuning: Drop-D
 
Dadg (low 2 high)




Intro:

g||------------------------------------------------------------------------||
d||*----------------------------------------------------------------------*||
a||*----------------------------------------------------------------------*||
D||---0----0-0----0---0----0-0----0----/8--8--8--8-8-8-8--3-3--2--2-2-2----||X2


Verse:

g||-----------------------------------------------------------------------||
d||-----------------------------------------------------------------------||
a||-----------------------------------------------------------------------||
D||--0-0-0-0--------8-8-8-8--------3--3--3--3-3-3-3/10--10--10--10-10-10--||

g||-----------------------------------------------------------------------||
d||-----------------------------------------------------------------------||
a||-----------------------------------------------------------------------||
D||--0-0-0-0--------8-8-8-8--------3--3--3--3-3-3-3-3--2--2--2--2-2-2-2---||


Chorus:

g||--------------------------------------------------------------------||
d||--------------------------------------------------------------------||
a||--------------------------------------------------------------------||
D||--8--8--8--8-8-8-8-8-10--10--10--10-10-10-10-10---0----0-0-0----0---||

g||--------------------------------------------------------------||
d||--------------------------------------------------------------||
a||--------------------------------------------------------------||
D||--3--3--3--3-3-3-3-3-2--2--2--2-2-2-2-2-----0----0-0-0----0---||

g||---------------------------------------------------------------------||
d||---------------------------------------------------------------------||
a||---------------------------------------------------------------------||
D||--8--8--8--8-8-8-8-8-10--10--10--10-10-10-10-10--0--0--0--0-0-0-0-0--||

g||---------------------------------------------------------------------||
d||---------------------------------------------------------------------||
a||---------------------------------------------------------------------||
D||--3--3--3--3-3-3-3-3-8--8--8--8-8-8-8-8-10--10--10--10-10-10-10-10---||


play verse again

play chorus again


Break-down

g||--------------------------------------------------||
d||*-----------14---15-14-----------14---15-14------*||
a||*---0h15h17----0---------0h15h17----0-------15---*||
D||--------------------------------------------------||X7

g||------------------------------------------------------||
d||-----------14---15-14---------------------------------||
a||---0h15h17----0---------------------------------------||
D||-----------------------8-8-8-8-8-8-10-10-10-10-10-10--||



Bridge:

g||------------------------------------------------------------------------------||
d||*-----------------------------------------------------------------------------||
a||*-----------------------------------------------------------------------------||
D||---0--0-0-0-0--0-0-0-0--0-0-0-0--0-0-0-3--3-3-3-3--3-3-3-3--3-3-3-3--3-3-3-8--||

g||-------------------------------------------------------------------------------------||
d||------------------------------------------------------------------------------------*||
a||------------------------------------------------------------------------------------*||
D||---8-8-8-8--8-8-8-8--8-8-8-8--8-8-8-3--3-3-3-3--3-3-3-3--3-3-3-2--2-2-2-2--2-2-2-0---||X3


play chorus again

outro:

g||----------------------||
d||----------------------||
a||----------------------||
D||---0----0-0-0-0-------||END

            
            
Suggest correction
Creating personal tab
Creating personal tab
You can edit any tab online and save it as your Personal.

You can edit, replace or remove any tab part or add personal notes – all changes will be seen only by you.

Personal tabs can be accessed anytime from any device, even offline.
Learn more »
comments
print report bad tab
4 comments total. Showing first comments.
0 reply
fret13 1,031 Aug 28, 2006 10:56 AM

hi listen when my bass album tab comes youll see haw they really play it

0 reply
fret13 1,031 Aug 28, 2006 01:09 PM

you did good on it but the chorus and brigde are way off, i also like the questions, comments, threats.lol:p
-------

0 reply
fret13 1,031 Sep 12, 2006 02:47 PM

i take it back its perfect.

guest
You may want to rate the tab now too:
select rating
Wanna post a correction for this tab? Suggest correction