Oops, an error
Loading. Please wait.

Youre All I Have tab

version 1
version 1

Whole song

Interactive

7,649 views 1 this week
2 commentsread comments
1 2 3 4 5
x 6
add to favorites
×
Save as Personal and add changes to this tab that will be seen only by you. Learn more ›
×
You can save this tab as Personal to edit and correct it or add notes. All changes will be seen only by you. Learn more »
launch autoscroll
font size
0
reset
how to read this tab
guitar tuner
edit
Autoscroll
slow
fast
+/-
esc
set tempo
stop
Tabbed by: Joshua Garcia (joshuag523@aol.com)

Tabs for the song: You're All I Have by Silverstein
Please rate and let me know if you have any corrections. Thank you.

Tabbed it since no one else had tabs for it. Should be correct.


*Updated on 2/22/10 - Finally figured out proper notes for the bridge (2nd 
guitar). Fix on the end of chorus (1st guitar).


Tuning: Drop C# (C# G# C# F# A# D#)


Intro
Guitar 1:
D#||---------------------------------------|
A#||---------------------------------------|
F#||-------9--------9-------------------7--| x6
C#||----10-------10-----------12-----------|
G#||--8--------0-----------10--------5-----|
C#||--------------------10---------5-------|



Pre-Chorus
Guitar 2:
D#||---------------------------------------------------|
A#||---------------------------------------------------|
F#||--9--9--9--10-10-10-9--9--9--10-10-10-9--9--9--9---|
C#||--10-10-10-10-10-10-10-10-10-10-10-10-10-10-10-10--|
G#||---------------------------------------------------|
C#||---------------------------------------------------|


D#||---------------------------------------------------------|
A#||---------------------------------------------------------|
F#||--9--9--9--10-10-10-12-12-12-12-12-12-12-12-12-12-12-12--|
C#||--x--x--x--x--x--x--x--x--x--x--x--x--x--x--x--x--x--x---|
G#||--7--7--7--8--8--8--10-10-10-10-10-10-10-10-10-10-10-10--|
C#||---------------------------------------------------------|


Guitar 1:
D#||-----------------------------------|
A#||-----------------------------------|
F#||-----------------------------------|
C#||--2-2-2-3-3-3-5-5-5-5-5-5-5-5-5-5--|
G#||--2-2-2-3-3-3-5-5-5-5-5-5-5-5-5-5--|
C#||--2-2-2-3-3-3-5-5-5-5-5-5-5-5-5-5--|



Chorus
Guitar 1:
D#||----------------------------------------------------------------------|
A#||----------------------------------------------------------------------|
F#||----------------------------------------------------------------------|
C#||--7-7-7-5-7-5-3--5\--3-3-3-3-3-3-0--7-7-7-5-7-5-3-10\--3-3-3-3-3-3-0--|
G#||--7-7-7-5-7-5-3--5\--3-3-3-3-3-3-0--7-7-7-5-7-5-3-10\--3-3-3-3-3-3-0--|
C#||--7-7-7-5-7-5-3--5\--3-3-3-3-3-3-0--7-7-7-5-7-5-3-10\--3-3-3-3-3-3-0--|


D#||---------------------------------------------------------|
A#||---------------------------------------------------------|
F#||---------------------------------------------------------|
C#||--7-7-7-5-7-5-3--5\--3-3-3-3-3-3-0--2-2-2-3-3-3-5-5-5-5--|
G#||--7-7-7-5-7-5-3--5\--3-3-3-3-3-3-0--2-2-2-3-3-3-5-5-5-5--|
C#||--7-7-7-5-7-5-3--5\--3-3-3-3-3-3-0--2-2-2-3-3-3-5-5-5-5--|


D#||---------------------|
A#||---------------------|
F#||--7-/-9----7-/-9--7--|
C#||--9-/-10---9-/-10-9--|
G#||---------------------|
C#||---------------------|


Guitar 2:
D#||-------------------|
A#||-------------------|
F#||--999999999999997--| x3
C#||--xxxxxxxxxxxxxxx--|
G#||--777777777777775--|
C#||-------------------|


D#||------------------------------------|
A#||------------------------------------|
F#||--9--9--9--10-10-10-12--12--12--12--|
C#||--x--x--x--x--x--x--x---x---x---x---|
G#||--7--7--7--8--8--8--10--10--10--10--|
C#||------------------------------------|



Verse
Guitar 1:
D#||---------------------------------------|
A#||---------------------------------------|
F#||-------9--------9-------------------7--| x4
C#||----10-------10-----------12-----------|
G#||--8--------0-----------10--------5-----|
C#||--------------------10---------5-------|



Pre-Chorus
Guitar 2:
D#||---------------------------------------------------|
A#||---------------------------------------------------|
F#||--9--9--9--10-10-10-9--9--9--10-10-10-9--9--9--9---|
C#||--10-10-10-10-10-10-10-10-10-10-10-10-10-10-10-10--|
G#||---------------------------------------------------|
C#||---------------------------------------------------|


D#||---------------------------------------------------------|
A#||---------------------------------------------------------|
F#||--9--9--9--10-10-10-12-12-12-12-12-12-12-12-12-12-12-12--|
C#||--x--x--x--x--x--x--x--x--x--x--x--x--x--x--x--x--x--x---|
G#||--7--7--7--8--8--8--10-10-10-10-10-10-10-10-10-10-10-10--|
C#||---------------------------------------------------------|


Guitar 1:
D#||-----------------------------------|
A#||-----------------------------------|
F#||-----------------------------------|
C#||--2-2-2-3-3-3-5-5-5-5-5-5-5-5-5-5--|
G#||--2-2-2-3-3-3-5-5-5-5-5-5-5-5-5-5--|
C#||--2-2-2-3-3-3-5-5-5-5-5-5-5-5-5-5--|



Chorus
Guitar 1:
D#||----------------------------------------------------------------------|
A#||----------------------------------------------------------------------|
F#||----------------------------------------------------------------------|
C#||--7-7-7-5-7-5-3--5\--3-3-3-3-3-3-0--7-7-7-5-7-5-3-10\--3-3-3-3-3-3-0--|
G#||--7-7-7-5-7-5-3--5\--3-3-3-3-3-3-0--7-7-7-5-7-5-3-10\--3-3-3-3-3-3-0--|
C#||--7-7-7-5-7-5-3--5\--3-3-3-3-3-3-0--7-7-7-5-7-5-3-10\--3-3-3-3-3-3-0--|


D#||---------------------------------------------------------|
A#||---------------------------------------------------------|
F#||---------------------------------------------------------|
C#||--7-7-7-5-7-5-3--5\--3-3-3-3-3-3-0--2-2-2-3-3-3-5-5-5-5--|
G#||--7-7-7-5-7-5-3--5\--3-3-3-3-3-3-0--2-2-2-3-3-3-5-5-5-5--|
C#||--7-7-7-5-7-5-3--5\--3-3-3-3-3-3-0--2-2-2-3-3-3-5-5-5-5--|


D#||---------------------|
A#||---------------------|
F#||--7-/-9----7-/-9--7--|
C#||--9-/-10---9-/-10-9--|
G#||---------------------|
C#||---------------------|


Guitar 2:
D#||-------------------|
A#||-------------------|
F#||--999999999999997--| x3
C#||--xxxxxxxxxxxxxxx--|
G#||--777777777777775--|
C#||-------------------|


D#||------------------------------------|
A#||------------------------------------|
F#||--9--9--9--10-10-10-12--12--12--12--|
C#||--x--x--x--x--x--x--x---x---x---x---|
G#||--7--7--7--8--8--8--10--10--10--10--|
C#||------------------------------------|



Bridge
Guitar 2:
D#||---3---|
A#||---5---|
F#||--(4)--| x2
C#||-------|
G#||-------|
C#||-------|


D#||--3-------------------------------0------|
A#||------0---------0---------0---------0----|
F#||----5---5-----5---5-----5---5---------5--| x4
C#||-----------------------------------------|
G#||-----------0---------3-------------------|
C#||-------------------------------5---------|



Breakdown
Guitar 1:
D#||-----------|
A#||-----------|
F#||--7-9-7-5--|
C#||--x-x-x-x--|
G#||--5-7-5-3--|
C#||-----------|


D#||-----------------------------------------------------------------|
A#||-----------------------------------------------------------------|
F#||--------7-7/9-9---------7-7\5-7---------5-5\4-5---------5-5\4-4--| x3
C#||--7-7---x-x/x-x---5-5---x-x\x-x---3-3---x-x\x-x---3-3---x-x\x-x--|
G#||--7-7---5-5/7-7---5-5---5-5\3-5---3-3---3-3\2-3---3-3---3-3\2-2--|
C#||--7-7-------------5-5-------------3-3-------------3-3------------|


D#||-------------------------------------------------------------|
A#||-------------------------------------------------------------|
F#||--------7-7/9-9---------7-7\5-7---------5-5\4-5--------------| 
C#||--7-7---x-x/x-x---5-5---x-x\x-x---3-3---x-x\x-x---3-3---2-2--|
G#||--7-7---5-5/7-7---5-5---5-5\3-5---3-3---3-3\2-3---3-3---2-2--|
C#||--7-7-------------5-5-------------3-3-------------3-3---2-2--|



Pre-Chorus
Guitar 2:
D#||--------------------------------------------------------------------------------------|
A#||--------------------------------------------------------------------------------------|
F#||--9-9-9-9-9-9-9-9-9-9-9-9-9-9-9---9-9-9-10-10-10-12-12-12-12-12-12-12-12-12-12-12-12--|
C#||--x-x-x-x-x-x-x-x-x-x-x-x-x-x-x---x-x-x-x--x--x--x--x--x--x--x--x--x--x--x--x--x--x---|
G#||--7-7-7-7-7-7-7-7-7-7-7-7-7-7-7---7-7-7-8--8--8--10-10-10-10-10-10-10-10-10-10-10-10--|
C#||--------------------------------------------------------------------------------------|
      . . . . . . . . . . . . . . .


Guitar 1:
D#||-----------------------------------|
A#||-----------------------------------|
F#||-----------------------------------|
C#||--2-2-2-3-3-3-5-5-5-5-5-5-5-5-5-5--|
G#||--2-2-2-3-3-3-5-5-5-5-5-5-5-5-5-5--|
C#||--2-2-2-3-3-3-5-5-5-5-5-5-5-5-5-5--|



Chorus
Guitar 1:
D#||----------------------------------------------------------------------|
A#||----------------------------------------------------------------------|
F#||----------------------------------------------------------------------|
C#||--7-7-7-5-7-5-3--5\--3-3-3-3-3-3-0--7-7-7-5-7-5-3-10\--3-3-3-3-3-3-0--|
G#||--7-7-7-5-7-5-3--5\--3-3-3-3-3-3-0--7-7-7-5-7-5-3-10\--3-3-3-3-3-3-0--|
C#||--7-7-7-5-7-5-3--5\--3-3-3-3-3-3-0--7-7-7-5-7-5-3-10\--3-3-3-3-3-3-0--|


D#||---------------------------------------------------------------------|
A#||---------------------------------------------------------------------|
F#||---------------------------------------------------------------------|
C#||--7-7-7-5-7-5-3--5\--3-3-3-3-3-3-0--2-2-2-3-3-3-5-5-5-5-5-5-5-5-5-5--|
G#||--7-7-7-5-7-5-3--5\--3-3-3-3-3-3-0--2-2-2-3-3-3-5-5-5-5-5-5-5-5-5-5--|
C#||--7-7-7-5-7-5-3--5\--3-3-3-3-3-3-0--2-2-2-3-3-3-5-5-5-5-5-5-5-5-5-5--|
                                       . . . . . . . . . . . .

Guitar 2:
D#||-------------------|
A#||-------------------|
F#||--999999999999997--| x3
C#||--xxxxxxxxxxxxxxx--|
G#||--777777777777775--|
C#||-------------------|


D#||--------------------------------------------------------|
A#||--------------------------------------------------------|
F#||--9--9--9--10-10-10-12--12--12--12--12--12--12--12--12--|
C#||--x--x--x--x--x--x--x---x---x---x---x---x---x---x---x---|
G#||--7--7--7--8--8--8--10--10--10--10--10--10--10--10--10--|
C#||--------------------------------------------------------|



Outro
Guitar 1:
D#||------------------------------------------|
A#||------------------------------------------|
F#||------------------------------------------| x4
C#||--3-3------5-5------7-7------7-7-7-7-5-4--|
G#||--3-3------5-5------7-7------7-7-7-7-5-4--|
C#||--3-3------5-5------7-7------7-7-7-7-5-4--|


Guitar 2:
D#||------------------------------------------------------------|
A#||----5---5----8-----8---10----10-10-10-10--------------------|
F#||----7b9-9----10b12-12--12b14-14-14-14-14---10-9-10-9--------| x4
C#||-----------------------------------------------------12-10--|
G#||------------------------------------------------------------|
C#||------------------------------------------------------------|


Guitar 1:
D#||------|
A#||------|
F#||------|
C#||--7\--|
G#||--7\--|
C#||--7\--|




Tablature Legend
----------------
 h   hammer-on
 p   pull-off
 b   bend
 pb  pre-bend
 r   release bend
 ~   hold / vibrato
 .   palm mute
 /   slide up
 \   slide down
 *   pinch harmonic
 '   natural harmonic
 x   mute note
 T   tap

            
            
Suggest correction
Creating personal tab
Creating personal tab
You can edit any tab online and save it as your Personal.

You can edit, replace or remove any tab part or add personal notes – all changes will be seen only by you.

Personal tabs can be accessed anytime from any device, even offline.
Learn more »
comments
print report bad tab
2 comments total.
0 reply
deluge_nl 145 Nov 08, 2009 04:47 AM

In the last pre-chorus, instead of muting the 7x9, just do the previous pre-chorus muted.

Pre-Chorus
Guitar 2:
D#||---------------------------------------------------|
A#||---------------------------------------------------|
F#||-9--9--9--10-10-10-9--9--9--10-10-10-9--9--9--9----|
C#||-10-10-10-10-10-10-10-10-10-10-10-10-10-10-10-10---|
G#||---------------------------------------------------|
C#||---------------------------------------------------|
. . . . . . . . . . . . . . . .

Other than that, awesome tab! 5*

0 reply
Sam Rulez D00d 948 Jun 05, 2010 05:39 AM

woah great tab!

guest
You may want to rate the tab now too:
select rating
Wanna post a correction for this tab? Suggest correction