Oops, an error
Loading. Please wait.

Catch And Release guitar pro

version 1
version 1

Whole song

Interactive

4,064 views 6 this week
6 commentsread comments
1 2 3 4 5
x 6
add to favorites
guitar tuner
Autoscroll
slow
fast
+/-
esc
set tempo
stop
"Catch And Release"
demo version
Play now

or get full version for Free

×
Get full version now!
Learn and play this song
in Tab Pro
Try for free

or get $10 off Welcome Bonus

Get welcome bonus
Get access to Tab Pro version of “Catch And Release”!
Tab Pro is a premium guitar tab service, available on PC, Mac, iOS and Android
TRY FOR FREE
To download “Catch And Release” Guitar Pro tab click button below
Please note that you must have Guitar Pro software installed on your
computer in order to view this file.
Suggest correction
comments
report bad tab
6 comments total. Showing first comments.
-1 reply
ZivonHunter 34 Jul 07, 2009 04:57 AM

The verse is way off. It should be more like this:

Q E E E E E E
E||----------------------------------------|
B||----------------------------------------|
G||----------------------------------------|
D||--(9)----x--(4)s--(5)--(5)s--(7)--(7)s--|
A||---7-----x---2s----3----3s----5----5s---|
E||---7-----x---2s----3----3s----5----5s---|

Q E H E
--------------------------||
--------------------------||
--------------------------||
--(9)----x--(9)--------L--||
---7-----x---7---------L--||
---7-----x---7---------L--||

0 reply
adam2008 2,565 Jul 07, 2009 06:15 AM

Verse is right! Sorry dude. I've seen them played so.

0 reply
ZivonHunter 34 Jul 20, 2009 09:44 AM

Then I stand corrected. But something still doesn't sound right. Maybe it's just me.

guest
You may want to rate the tab now too:
select rating