Oops, an error
Loading. Please wait.

Panic Switch bass

version 4
version 4

Whole song

Interactive

7,868 views 3 this week
1 commentread comment
1 2 3 4 5
x 4
add to favorites
×
Save as Personal and add changes to this tab that will be seen only by you. Learn more ›
×
You can save this tab as Personal to edit and correct it or add notes. All changes will be seen only by you. Learn more »
launch autoscroll
font size
0
reset
guitar tuner
backing track
0:00
0:00
edit
Autoscroll
slow
fast
+/-
esc
set tempo
stop
-------------------------------------------------------------------------------
			     Panic Switch - Silversun Pickups
-------------------------------------------------------------------------------

Tabbed By: Joe Gabriel Avila
e-mail: rockrocks2105@yahoo.com

Note wise, this tab should sound just like the song, though you may play some parts
in another fret and string. They should all be the same notes in the end anyway.
If you happen to spot a typo in the fretting, please let me know in the comments section
or e-mail me about it. I’ll get it fixed. Enjoy this easy to learn song. :)

Tuning: EADG Standard Bass
BPM: 132

Intro: (0:00-0:51) 28x
G|-------------------|
D|o-3-------------1-o|
A|o-------1-----4---o|
E|-----1-----4-------|

Verse 1: (0:51-1:20)5x
G|-------------------|-------------------|-------------------|-------------------|
D|o-3-------------1-o|--3----------------|-------------------|------------------o|
A|o-------1-----4---o|--------1-----1----|--3-----3-----3----|--3-----3-----3---o|
E|-----1-----4-------|-----1-----4----4--|-----3-----3----3--|-----3-----3----3--|

Pre-Chorus: (1:20-1:35)
G|-------------------|-------------------|-------------------|-------------------|
D|-------------------|-------------------|-------------------|-------------------|
A|--1-----1-----1----|--1-----1-----1----|--3-----3-----3----|--6-6-6-6-6-6-6-6--|
E|-----3-----3----3--|-----3-----3----3--|-----3-----3----3--|-------------------|

                    3x
G|-------------------|-------------------|
D|o-3-------------1-o|--3----------------|
A|o-------1-----4---o|--------1-----1-3--|
E|-----1-----4-------|-----1-----4-------|

Chorus: (1:35-2:04)
G|-------------------|-------------------|-------------------|-------------------|
D|-------------------|-------------------|-------------------|-------------------|
A|--4-4-4-4-4-4-4-4--|--4-4-4-4-4-4-4-4--|--8-8-8-8-8-8-8-8--|--8-8-8-8-8-8-8-8--|
E|-------------------|-------------------|-------------------|-------------------|

G|-------------------|-------------------|-------------------|-------------------|
D|-------------------|-------------------|-------------------|-------------------|
A|--6-6-6-6-6-6-6-6--|--6-6-6-6-6-6-6-6--|--3-3-3-3-3-3-3-3--|--3-3-3-3-3-3-3-3--|
E|-------------------|-------------------|-------------------|-------------------|

G|-------------------|-------------------|-------------------|-------------------|
D|-------------------|-------------------|-------------------|-------------------|
A|--4-4-4-4-4-4-4-4--|--4-4-4-4-4-4-4-4--|--8-8-8-8-8-8-8-8--|--8-8-8-8-8-8-8-8--|
E|-------------------|-------------------|-------------------|-------------------|

G|-------------------|-------------------|-------------------|-------------------|
D|--5-5-5-5-5-5-5-5--|--5-5-5-5-5-5-5-5--|--8-8-8-8-8-8-8-8--|--8-8-8-8-8-8-8-8--|
A|-------------------|-------------------|-------------------|-------------------|
E|-------------------|-------------------|-------------------|-------------------|


Bridge: (2:04-2:18) 8x
G|-------------------|
D|o-3-------------1-o|
A|o-------1-----4---o|
E|-----1-----4-------|

Verse 2: (2:18-2:47)5x
G|-------------------|-------------------|-------------------|-------------------|
D|o-3-------------1-o|--3----------------|-------------------|------------------o|
A|o-------1-----4---o|--------1-----1----|--3-----3-----3----|--3-----3-----3---o|
E|-----1-----4-------|-----1-----4----4--|-----3-----3----3--|-----3-----3----3--|

Pre-Chorus: (2:47-3:02)
G|-------------------|-------------------|-------------------|-------------------|
D|-------------------|-------------------|-------------------|-------------------|
A|--1-----1-----1----|--1-----1-----1----|--3-----3-----3----|--6-6-6-6-6-6-6-6--|
E|-----3-----3----3--|-----3-----3----3--|-----3-----3----3--|-------------------|

                    3x
G|-------------------|-------------------|
D|o-3-------------1-o|--3----------------|
A|o-------1-----4---o|--------1-----1-3--|
E|-----1-----4-------|-----1-----4-------|

Chorus: (3:02-3:31)
G|-------------------|-------------------|-------------------|-------------------|
D|-------------------|-------------------|-------------------|-------------------|
A|--4-4-4-4-4-4-4-4--|--4-4-4-4-4-4-4-4--|--8-8-8-8-8-8-8-8--|--8-8-8-8-8-8-8-8--|
E|-------------------|-------------------|-------------------|-------------------|

G|-------------------|-------------------|-------------------|-------------------|
D|-------------------|-------------------|-------------------|-------------------|
A|--6-6-6-6-6-6-6-6--|--6-6-6-6-6-6-6-6--|--3-3-3-3-3-3-3-3--|--3-3-3-3-3-3-3-3--|
E|-------------------|-------------------|-------------------|-------------------|

G|-------------------|-------------------|-------------------|-------------------|
D|-------------------|-------------------|-------------------|-------------------|
A|--4-4-4-4-4-4-4-4--|--4-4-4-4-4-4-4-4--|--8-8-8-8-8-8-8-8--|--8-8-8-8-8-8-8-8--|
E|-------------------|-------------------|-------------------|-------------------|

G|-------------------|-------------------|-------------------|-------------------|
D|--5-5-5-5-5-5-5-5--|--5-5-5-5-5-5-5-5--|--8-8-8-8-8-8-8-8--|--8-8-8-8-8-8-8-8--|
A|-------------------|-------------------|-------------------|-------------------|
E|-------------------|-------------------|-------------------|-------------------|

Solo: (3:31-4:29)  14x                                                         16x
G|-------------------|-------------------|-------------------|-------------------|
D|o-3-------------1-o|--3----------------|-------------------|o-3-------------1-o|
A|o-------1-----4---o|--------1-----3-1--|--3-3-3-3-3-3-3-3--|o-------1-----4---o|
E|-----1-----4-------|-----1-----4-------|-------------------|-----1-----4-------|

Waiting & Fading: (4:29-4:44)
G|-------------------|-------------------|-------------------|-------------------|
D|o------------------|-------------------|-------------------|------------------o|
A|o-8-8-8-8-8-8-8-6--|--6-6-6-6-6-6-6-6--|--6-6-6-6-6-6-6-8--|--8-8-8-8-8-8-8-8-o|
E|-------------------|-------------------|-------------------|-------------------|

Chorus: (4:44-5:13)
G|-------------------|-------------------|-------------------|-------------------|
D|-------------------|-------------------|-------------------|-------------------|
A|--4-4-4-4-4-4-4-4--|--4-4-4-4-4-4-4-4--|--8-8-8-8-8-8-8-8--|--8-8-8-8-8-8-8-8--|
E|-------------------|-------------------|-------------------|-------------------|

G|-------------------|-------------------|-------------------|-------------------|
D|-------------------|-------------------|-------------------|-------------------|
A|--6-6-6-6-6-6-6-6--|--6-6-6-6-6-6-6-6--|--3-3-3-3-3-3-3-3--|--3-3-3-3-3-3-3-3--|
E|-------------------|-------------------|-------------------|-------------------|

G|-------------------|-------------------|-------------------|-------------------|
D|-------------------|-------------------|-------------------|-------------------|
A|--4-4-4-4-4-4-4-4--|--4-4-4-4-4-4-4-4--|--8-8-8-8-8-8-8-8--|--8-8-8-8-8-8-8-8--|
E|-------------------|-------------------|-------------------|-------------------|

G|-------------------|-------------------|-------------------|-------------------|
D|--5-5-5-5-5-5-5-5--|--5-5-5-5-5-5-5-5--|--8-8-8-8-8-8-8-8--|--8-8-8-8-8-8-8-8--|
A|-------------------|-------------------|-------------------|-------------------|
E|-------------------|-------------------|-------------------|-------------------|

Outro: (5:13-5:31)  8x
G|-------------------|
D|o-3-------------1-o|
A|o-------1-----4---o|
E|-----1-----4-------|

--------------------------------------------------
Lyrics:

[Verse 1]
time is never worth my time
blue shine bleeds into my eyes
i still sleep on the right side
but the white noise can't leave the scene behind

[Pre-Chorus 1]
could i be anything you want me to be
if so is it meant to be seen

[Chorus]
when you see yourself in a crowded room
do your fingers itch are you pistol whipped
will you step in line or release the glitch
can you fall asleep with a panic switch
when you see yourself in a crowded room
do your fingers itch are you pistol whipped
will you step in line or release the glitch
do you think she'll sleep with a panic...

[Verse 2]
i'll try to hold on tight tonight
pink slip inviting me inside
want to burn skin and brand what once was mine
but the red views keep ripping the divide

[Pre-Chorus 2]
if i go everywhere you want me to go
how will i know you'll still follow

[Solo Section]
movements are made slow motion in frame
i'm waiting and fading and floating away
the curtains are torn and the setting decayed
i'm waiting and fading and floating...
i'm waiting and fading and floating away
i'm waiting and fading and floating away
i'm waiting and fading and floating away
waiting and fading
waiting and fading
--------------------------------------------------

You can get by this song without any slides, hammers and stuff like that.
Honestly, I didn’t notice any while learning this song on my own,
but I use a slide or two every now and then by instinct, to spice it up a little.
Here is the notation anyway:

| /  slide up
| \  slide down
| h  hammer-on
| p  pull-off
| ~  vibrato
| +  harmonic
| x  Mute note
===============================================================================

            
            
Suggest correction
Creating personal tab
Creating personal tab
You can edit any tab online and save it as your Personal.

You can edit, replace or remove any tab part or add personal notes – all changes will be seen only by you.

Personal tabs can be accessed anytime from any device, even offline.
Learn more »
comments
print report bad tab
1 comment total.
0 reply
junobass 193 Apr 17, 2017 08:52 PM

I put my capo on the first fret which makes it much easier to play, similar to the Version 2 tabs on here.

guest
You may want to rate the tab now too:
select rating
Wanna post a correction for this tab? Suggest correction