Oops, an error
Loading. Please wait.

Panic Switch tab

version 3
version 3

Whole song

Interactive

24,707 views 6 this week
2 commentsread comments
1 2 3 4 5
x 5
add to favorites
×
Save as Personal and add changes to this tab that will be seen only by you. Learn more ›
×
You can save this tab as Personal to edit and correct it or add notes. All changes will be seen only by you. Learn more »
launch autoscroll
font size
0
reset
how to read this tab
guitar tuner
backing track
0:00
0:00
edit
Autoscroll
slow
fast
+/-
esc
set tempo
stop
Author
Difficulty
Intro
e|-------------------------------------|
B|-------------------------------------|
G|-------------------------------------|
D|--3----------1-----------------------|x4
A|-------1---4-------------------------|
E|-----1----4--------------------------|

Part 1

e|---------------------------------------------------------------|
B|---------------------------------------------------------------|
G|---------------------------------------------------------------|
D|--3--3--x-x-x-x*--3/6--6--6--x-x-x-x--6/8--8--8-x-x-x-x--8/10--|
A|---------------------------------------------------------------|
E|---------------------------------------------------------------|

e|-------------------------------------|
B|-------------------------------------|
G|-------------------------------------|
D|--10--10--x-x-x-x--10\---------------|
A|-------------------------------------|
E|-------------------------------------|

Then

e|--------------------------------------------------------------|
B|--------------------------------------------------------------|
G|--------------------------------------------------------------|
D|--3--3--x-x-x-x--3/6--6--6--x-x-x-x--6/8--8--8--x-x-x-x--8\---|
A|--------------------------------------------------------------|
E|--------------------------------------------------------------|

e|--------------------------------------------------------------|
B|--------------------------------------------------------------|
G|--------------------------------------------------------------|
D|-5--5--x-x-x-x--5\1--1----------------------------------------|  X's 2
A|--------------------------------------------------------------|
E|--------------------------------------------------------------|

*Dead Notes Can Also Be Played As Whatever Section Your in on the D
Ex. 3--3--x-x-x-x--3/ = 3--3--3-3-3-3--3/
I Prefer Using the Actual Note Though

Also For this Part the Picking is Down, Down, (Speed Up) Down, Up, Up, Down

Part 2

e|----------------------------------------------------------|
B|----------------------------------------------------------|
G|-x-x-13--13---13--13---15---12--12--12--------------------|
D|-x-x--x---x----x---x----x----x---x---x--------------------|
A|-x-x-11--11---11--11---13---10--10--10--------------------|
E|------------x---------------------------------------------|

e|----------------------------------------------------------|
B|----------------------------------------------------------|
G|-x-x-12--12---12--12---14---10--12--10--------------------|
D|-x-x--x---x----x---x----x----x---x---x--------------------| X's 2
A|-x-x-10--10---10--10---11----8--10---8--------------------|
E|------------x---------------------------------------------|

On the Second Time do this Instead of 14 10 12 10...

e|-------------------------------------------------------------|
B|-------------------------------------------------------------|
G|--15^bend as much as possible--------------------------------|
D|---x---------------------------------------------------------|
A|--13---------------------------------------------------------|
E|-------------------------------------------------------------|


The Strum Pattern is Down, Up Quickly and The Rest Are All Down (This Goes For All Notes

There's Not Really Any Guitar In the Verse But I Play This Anyway

Verse
e|--------------------------------------------------------------------------|
B|--------------------------------------------------------------------------|
G|-5-6-6-6-5-----3-------------------5-----6-6-6-5-8--6-5-----5-5-5-5-5-10--|
D|-x-x-x-x-x-3---x-5-----5-5-5-3-2---x-6---x-x-x-x-x--x-x-4-5-x-x-x-x-x--x--|
A|-3-4-4-4-3-x---1-x-----x-x-x-x-2---3-x---4-4-4-3-6--4-3-x-x-3-3-3-3-3--8--|
E|-----------1-----3-----3-3-3-1-0-----4------------------6-3---------------|

Pre-Chorus
e|-----------------------------------------------------------------|
B|-----------------------------------------------------------------|
G|-3--5--8-10-10-10-10---------------------------------------------|
D|-x--x--x--x--x--x--x---------------------------------------------|
A|-1--3--6--8--8--8--8---------------------------------------------|
E|-----------------------------------------------------------------|

Strum Pattern: Down, Down, Down, Up, Up, Up, Down For Each

Then

Chours
e|-------------------------------------------------------------------------|
B|-------------------------------------------------------------------------|
G|--6666666666666666-1010101010101010-8888888888888888-5555555555555555----|
D|--6666666666666666-1010101010101010-8888888888888888-5555555555555555----|
A|--4444444444444444-8888888888888888-6666666666666666-3333333333333333----|
E|-------------------------------------------------------------------------|

e|-------------------------------------------------------------------------|
B|-------------------------------------------------------------------------|
G|--6666666666666666-1010101010101010-5555555555555555-8888888888888888----|
D|--6666666666666666-1010101010101010-5555555555555555-8888888888888888--3-|
A|--4444444444444444-8888888888888888-3333333333333333-6666666666666666--3-|
E|-----------------------------------------------------------------------1-|

Then Play Part 2 Listen to the Song for the Order Also I Couldn't find Out the Solo or 
So That's Left Out

This Is My First Tab so Tell Me What You Think

Finally I Give Partial Credit to h0bb3s Thanx Again Hope You Enjoy!

            
            
Suggest correction
Creating personal tab
Creating personal tab
You can edit any tab online and save it as your Personal.

You can edit, replace or remove any tab part or add personal notes – all changes will be seen only by you.

Personal tabs can be accessed anytime from any device, even offline.
Learn more »
comments
print report bad tab
2 comments total.
0 reply
jefferykill5 10 Sep 09, 2010 07:18 PM

pretty nice for first tab, 5 stars here!

0 reply
needforspeedEA 10 Oct 31, 2011 02:00 PM

Simple power chords for the chorus, U MAD? No way...
That's regular chords, just listen to the song and test by yourself the correction:

Db                                            Fm
e |--------------------------------------------------8--8--8--8--8--8--8--8--8--8--8--8--8--8--
B |----6--6--6--6--6--6--6--6--6--6--6--6--6--6------9--9--9--9--9--9--9--9--9--9--9--9--9--9--
G |6-6-6--6--6--6--6--6--6--6--6--6--6--6--6--6--101010-10-10-10-10-10-10-10-10-10-10-10-10-10-
D |----6--6--6--6--6--6--6--6--6--6--6--6--6--6------10-10-10-10-10-10-10-10-10-10-10-10-10-10-
A |4-4-4--4--4--4--4--4--4--4--4--4--4--4--4--4--8-8-8--8--8--8--8--8--8--8--8--8--8--8--8--8--
E |--------------------------------------------------------------------------------------------

Eb Cm
e --------------------------------------------------3--3--3--3--3--3--3--3--3--3--3--3--3--3--
B ----8--8--8--8--8--8--8--8--8--8--8--8--8--8------4--4--4--4--4--4--4--4--4--4--4--4--4--4--
G 8-8-8--8--8--8--8--8--8--8--8--8--8--8--8--8--5-5-5--5--5--5--5--5--5--5--5--5--5--5--5--5--
D ----8--8--8--8--8--8--8--8--8--8--8--8--8--8------3--3--3--3--3--3--3--3--3--3--3--3--3--3--
A 6-6-6--6--6--6--6--6--6--6--6--6--6--6--6--6--3-3-3--3--3--3--3--3--3--3--3--3--3--3--3--3--
E --------------------------------------------------------------------------------------------

Db Fm
e --------------------------------------------------8--8--8--8--8--8--8--8--8--8--8--8--8--8--
B ----6--6--6--6--6--6--6--6--6--6--6--6--6--6------9--9--9--9--9--9--9--9--9--9--9--9--9--9--
G 6-6-6--6--6--6--6--6--6--6--6--6--6--6--6--6--101010-10-10-10-10-10-10-10-10-10-10-10-10-10-
D ----6--6--6--6--6--6--6--6--6--6--6--6--6--6------10-10-10-10-10-10-10-10-10-10-10-10-10-10-
A 4-4-4--4--4--4--4--4--4--4--4--4--4--4--4--4--8-8-8--8--8--8--8--8--8--8--8--8--8--8--8--8--
E --------------------------------------------------------------------------------------------

Cm Eb
e ----3--3--3--3--3--3--3--3--3--3--3--3--3--3------------------------------------------------|
B ----4--4--4--4--4--4--4--4--4--4--4--4--4--4------8--8--8--8--8--8--8--8--8--8--8--8--8--8--|
G 5-5-5--5--5--5--5--5--5--5--5--5--5--5--5--5--8-8-8--8--8--8--8--8--8--8--8--8--8--8--8--8--|
D ----3--3--3--3--3--3--3--3--3--3--3--3--3--3------8--8--8--8--8--8--8--8--8--8--8--8--8--8--|
A 3-3-3--3--3--3--3--3--3--3--3--3--3--3--3--3--6-6-6--6--6--6--6--6--6--6--6--6--6--6--6--6--|
E --------------------------------------------------------------------------------------------|

guest
You may want to rate the tab now too:
select rating
Wanna post a correction for this tab? Suggest correction