Oops, an error
Loading. Please wait.

Well Thought Out Twinkles bass

version 1
version 1

Whole song

Interactive

14,297 views 21 this week
5 commentsread comments
1 2 3 4 5
x 12
add to favorites
×
Save as Personal and add changes to this tab that will be seen only by you. Learn more ›
×
You can save this tab as Personal to edit and correct it or add notes. All changes will be seen only by you. Learn more »
launch autoscroll
font size
0
reset
guitar tuner
backing track
0:00
0:00
edit
Autoscroll
slow
fast
+/-
esc
set tempo
stop
Author
Difficulty
Silversun Pickups - Well Thought Out TWinkles

Throw the gain up high and give it a bit of crunch.

Some parts I'm not sure of, as it can be hard to hear the bass at times. I know it won't 
100% but this is pretty

much how I play it. It's all on one string but habit and aesthics bing me to tab out all 
strings.

Intro

G----------------|----------------|----------------|----------------|
D----------------|----------------|----------------|----------------|
A----------------|----------------|----------------|----------------|
E-9-97-9-0-0-7-0-|-9-97-9-0-7-9-7-|-9-97-9-0-0-7-0-|-9-97-9-0-9-7-9-|

G----------------|----------------|----------------|--------------------------|
D----------------|----------------|----------------|--------------------------|
A----------------|----------------|----------------|--------------------------|
E-9-97-9-0-0-7-0-|-9-97-9-0-7-9-7-|-9-97-9-0-0-7-0-|-9-00-9-00-9-00-9-00-9090-|

Verse

And what was that scar...
G-----------------|-----------------|-------------------|
D-----------------|-----------------|-------------------|
A-----------------|-----------------|-------------------|
E-7-7-7-7-7-7-7-7-|-5-5-5-5-5-5-5-5-|-0-0-12-0h12-12-00-|

G-----------------|-----------------|-----------------|-------------------|
D-----------------|-----------------|-----------------|-------------------|
A-----------------|-----------------|-----------------|-------------------| x3
E-9-9-9-9-9-9-9-9-|-7-7-7-7-7-7-7-7-|-5-5-5-5-5-5-5-5-|-0-0-12-0h12-12-00-|

Break

G----------------|----------------|----------------|----------------|
D----------------|----------------|----------------|----------------|
A----------------|----------------|----------------|----------------|
E-9-97-9-0-0-7-0-|-9-97-9-0-7-9-7-|-9-97-9-0-0-7-0-|-9-97-9-0-9-7-9-|

G----------------|----------------|----------------|--------------------------|
D----------------|----------------|----------------|--------------------------|
A----------------|----------------|----------------|--------------------------|
E-9-97-9-0-0-7-0-|-9-97-9-0-7-9-7-|-9-97-9-0-0-7-0-|-9-00-9-00-9-00-9-00-9090-|

Verse

G-----------------|-----------------|-------------------|
D-----------------|-----------------|-------------------|
A-----------------|-----------------|-------------------|
E-7-7-7-7-7-7-7-7-|-5-5-5-5-5-5-5-5-|-0-0-12-0h12-12-00-|

G-----------------|-----------------|-----------------|-------------------|
D-----------------|-----------------|-----------------|-------------------|
A-----------------|-----------------|-----------------|-------------------|x3
E-9-9-9-9-9-9-9-9-|-7-7-7-7-7-7-7-7-|-5-5-5-5-5-5-5-5-|-0-0-12-0h12-12-00-|

G----------------|
D----------------|
A----------------|
E-0-0-12-0h12-12-|

Bass solo

G--------------------------|--------------------------|
D--------------------------|--------------------------|
A--------------------------|--------------------------|
E-9-00-9-00-9-00-9-00-9090-|-9-00-9-00-9-00-9-00-9090-|

Middle eigth
G--------------------------|--------------------------|--------------------------|--------------------------|
D--------------------------|--------------------------|--------------------------|--------------------------|
A--------------------------|--------------------------|--------------------------|--------------------------|x3
E-9-00-9-00-9-00-9-00-9090-|-9-00-9-00-9-00-9-00-9090-|-7-00-7-00-7-00-7-00-7999-|-5-00-5-00-5-00-5-00-5777-|

G--------------------------|--------------------------|
D--------------------------|--------------------------|
A--------------------------|--------------------------|
E-9-00-9-00-9-00-9-00-9090-|-9-00-9-00-9-00-9-00-9090-|x4

Verse

G-----------------|-----------------|-------------------|
D-----------------|-----------------|-------------------|
A-----------------|-----------------|-------------------|
E-7-7-7-7-7-7-7-7-|-5-5-5-5-5-5-5-5-|-0-0-12-0h12-12-00-|

G-----------------|-----------------|-----------------|-------------------|
D-----------------|-----------------|-----------------|-------------------|
A-----------------|-----------------|-----------------|-------------------|x2
E-9-9-9-9-9-9-9-9-|-7-7-7-7-7-7-7-7-|-5-5-5-5-5-5-5-5-|-0-0-12-0h12-12-00-|

G-----------------|-----------------|-----------------|-----------------|-----------------|-----------------|
D-----------------|-----------------|-----------------|-----------------|-----------------|-----------------|
A-----------------|-----------------|-----------------|-----------------|-----------------|-----------------|
E-9-9-9-9-9-9-9-9-|-7-7-7-7-7-7-7-7-|-5-5-5-5-5-5-5-5-|-0-0-0-0-0-0-0-0-|-5-5-5-5-5-5-5-5-|-7-7-7-7-7-7-7-7-|

G--------------------------|--------------------------|
D--------------------------|--------------------------|
A--------------------------|--------------------------|
E-9-00-9-00-9-00-9-00-9090-|-9-00-9-00-9-00-9-00-9090-|x2

Like I say, it's not 100% but there's enough right to get your freak on.

            
            
Suggest correction
Creating personal tab
Creating personal tab
You can edit any tab online and save it as your Personal.

You can edit, replace or remove any tab part or add personal notes – all changes will be seen only by you.

Personal tabs can be accessed anytime from any device, even offline.
Learn more »
comments
print report bad tab
5 comments total. Showing first comments.
0 reply
pebble_rebel 72 Jan 11, 2007 06:48 AM

Ive worked this song out on guitar, and i remember it being bang on. Even helped with me with that bassy middle 8 bit. ill tab that post exams.

0 reply
blindednchains2 103 Aug 31, 2007 08:11 AM

the notes sound right but the number of times you play it is wrong sometimes, like the end... but it's easy to figure it out... so it's still an excellent tab.

0 reply
creepingdeth428 658 May 15, 2008 07:20 PM

I love you for tabbing this

guest
You may want to rate the tab now too:
select rating
Wanna post a correction for this tab? Suggest correction