Oops, an error
Loading. Please wait.

Kathys Song tab

version 2
version 2

Whole song

Interactive

70,650 views 198 this week
3 commentsread comments
1 2 3 4 5
x 24
add to favorites
×
Save as Personal and add changes to this tab that will be seen only by you. Learn more ›
×
You can save this tab as Personal to edit and correct it or add notes. All changes will be seen only by you. Learn more »
launch autoscroll
font size
0
reset
how to read this tab
guitar tuner
edit
Autoscroll
slow
fast
+/-
esc
set tempo
stop
Author
**********************************************************************
THIS IS THE STUDIO VERSION AND HAS A SLIGHTLY DIFFERENT CHORD SEQUENCE 
TO THE LIVE VERSION.
**********************************************************************

Tuned down 1/2 step

[Intro]

e|----------0---------------0-----|----------0---------------------|
B|--------------------------------|--------------------------------|
G|----0-------0-------0-------0---|----0-------0-------0-----------|
D|4-------4-------4-------4-------|4-------4-------4-------4---2---|
A|--------------------------------|--------------------------------|
E|--------------------------------|--------------------------------|

  G       C/g     G                        C/g     G
e|--------------------------------|--------------------------------|
B|----0h1---1--p0-----0----(0)----|--0--h1---1--p0-----0-----0-----|
G|------------------------------0-|------------------------------0-|
D|----0h2-----2p0-----0-------0---|----0h2-----2p0-----0-------0---|
A|--------------------------------|--------------------------------|
E|3-------3-------3-------3-------|3-------3-------3-------3-------|


[Verse]

  G                C/g
e|----------------|----------------|----------------|
B|--0-------0-----|1---------1-----|1---------1-----|
G|------0-------0-|------0---------|------0---------|
D|----0-------0---|----2-------2---|----2-------2---|
A|----------------|----------------|----------------|
E|3-------3-------|3-------3-------|3-------3-------|
     I  hear the  driz   -   zle   of          th

  G
e|----------------3---------------|
B|0---------0---------------0-----|
G|------0---------------0---------|
D|----0-------0-------0-------0---|
A|--------------------------------|
E|3-------3-------3-------3-------|
 rain.

  Am               Gadd9            C       /b
e|----------------|----------------|----------------|
B|1---------1-----|0---------0-----|1---------1-----|
G|------2---------|------2---------|------0---------|
D|----2-------2---|----0-------0---|----2-------0---|
A|0-------0-------|----------------|3-------2-------|
E|----------------|3-------3-------|----------------|
        Like a    mem    -   o  -  ry      it

  Bm
e|----------------2---------------|
B|3---------3---------------3-----|
G|------4---------------4---------|
D|----4-------4-------4-------4---|
A|2-------2-------2-------2-------|
E|--------------------------------|
 falls.

  G*               Bm               G       /a  /b
e|----------------|----------------|----------------|
B|3---------3-----|3---------3-----|--0-------------|
G|------4---------|------4-------0-|------0---------|
D|----0-------0---|----4-------4---|----0-----0-----|
A|----------------|2-------2-------|--------0---2---|
E|3-------3-------|----------------|3---------------|
        Soft and  warm        con     -    tinu  -

  C
e|----------------0---------------|
B|----------1---------------1-----|
G|------0---------------0---------|
D|----2-------2-------2-------2---|
A|3-------3-------3-------3-------|
E|--------------------------------|
 ing.

  Am               Gadd9           D
e|----------------|---------------|------2---------|
B|1---------1-----|0---------0----|----------3-----|
G|------2---------|------2--------|----2-------2---|
D|----2-------2---|----0-------0--|0-------0-------|
A|0-------0-------|---------------|----------------|
E|----------------|3-------3------|----------------|
         Tapping  on        my    roof      and

  G       C/g      G       C/g     G       C/g      G       C/g
e|----------------|---------------|----------------|---------------|
B|----------1-----|0---------1----|0---------1-----|0---------1----|
G|------0---------|------0--------|------0---------|------0--------|
D|----0-------2---|----0-------2--|----0-------2---|----0-------2--|
A|----------------|---------------|----------------|---------------|
E|3-------3-------|3-------3------|3-------3-------|3-------3------|
 walls.

  G                C/g
e|----------------|----------------|----------------|
B|0---------0-----|1---------1-----|1---------1-----|
G|------0-------0-|------0---------|------0---------|
D|----0-------0---|----2-------2---|----2-------2---|
A|----------------|----------------|----------------|
E|3-------3-------|3-------3-------|3-------3-------|
    And from the  shelter….. eEtc.


[Interlude]

  Dadd11/a
e|----------------|5---------------|----------------|----------------|
B|3---------3-----|----------3-----|3---------3-----|----------3-----|
G|------0---------|------0---------|------0---------|------0---------|
D|----4-------4---|----4-------4---|----4-------4---|----4-------4---|
A|----------------|----------------|----------------|----------------|
E|5-------5-------|5-------5-------|5-------5-------|5-------5-------|

  G       C/g     G                      
e|--------------------------------|
B|----0h1---1--p0-----0----(0)----|
G|------------------------------0-|
D|----0h2-----2p0-----0-------0---|
A|--------------------------------|
E|3-------3-------3-------3-------|


[Outro]

  G                Gadd9            G
e|----------------|----------------|----------------|
B|----------------|----------------|0---------------|
G|0-----0---0-----|0h2---2---2-----|------0---2-----|
D|----0-------0---|----0-------0---|----0-------0---|
A|----------------|----------------|----------------|
E|3-------3-------|3-------3-------|3-------3-------|


e|----------------3---------------|
B|0---------0---------------0-----|
G|------0---------------0---------|
D|----0-------0-------0-------0---|
A|--------------------------------|
E|3-------3-------3-------3-------|

  Am               Gadd9            C       /b
e|----------------|----------------|----------------|
B|1---------1-----|0---------0-----|1---------1-----|
G|------2---------|------2---------|------0---------|
D|----2-------2---|----0-------0---|----2-------0---|
A|0-------0-------|----------------|3-------2-------|
E|----------------|3-------3-------|----------------|

  Bm
e|----------------2---------------|
B|3---------3---------------3-----|
G|------4---------------4---------|
D|----4-------4-------4-------4---|
A|2-------2-------2-------2-------|
E|--------------------------------|

  G*               Bm               G       /a  /b
e|----------------|----------------|----------------|
B|--3-------3-----|3---------3-----|----0-----------|
G|------4---------|------4-------0-|----------------|
D|----0-------0---|----4-------4---|----0-----------|
A|----------------|2-------2-------|--------0---2---|
E|3-------3-------|----------------|3---------------|

  C
e|----------------0---------------|
B|------1---1---------------1-----|
G|----------------------0---------|
D|----2-------2-------2-------2---|
A|3-------3-------3-------3-------|
E|--------------------------------|

  Am               Gadd9           D
e|----------------|---------------|------2---------|3-|
B|1---------1-----|0---------0----|----------3-----|0-|
G|------2---------|------2--------|----2-------2---|0-|
D|----2-------2---|----0-------0--|0-------0-------|0-|
A|0-------0-------|---------------|----------------|2-|
E|----------------|3-------3------|----------------|3-|

Note: It's worth making a note of the timing structure of the verses. 3 bars of 2/4 
by a single bar of 4/4. Being aware of this certainly helps when performing the song.



************************************

| (n)  Ghost note
| h    Hammer-on
| p    Pull-off

************************************

            
            
Suggest correction
Creating personal tab
Creating personal tab
You can edit any tab online and save it as your Personal.

You can edit, replace or remove any tab part or add personal notes – all changes will be seen only by you.

Personal tabs can be accessed anytime from any device, even offline.
Learn more »
comments
print report bad tab
3 comments total.
0 reply
Bullibert 10 Jan 21, 2012 03:09 AM

Good job, thank You very much. It was a great help.

0 reply
christian.fiddi 10 Aug 31, 2013 03:18 PM

Thanks brah

0 reply
Guodlca 193 Jul 31, 2015 09:22 AM, edited at 07:22 pm

This tab helped me, but in the Gadd9 bar below, the first time 4th string is played, it's an E (2nd fret) not a D (open). You could perhaps say G6add9 --> Gadd9.

Also, at the Bm part, in the studio version the bass is played on the 6th string 2nd fret, not 5th string (F#/Bm not Bm)

guest
You may want to rate the tab now too:
select rating
Wanna post a correction for this tab? Suggest correction