Oops, an error
Loading. Please wait.
We have Chord Pro version of Scarborough Fair.
It's the closest thing you can get to the original song and it has interactive parts. Check out the tab »
×

Scarborough Fair tab

version 5
version 5

Whole song

Interactive

Video

  • Breakdown of fingerstyle pattern and chord explanation.
5,885 views 24 this week
no commentswrite comment
1 2 3 4 5
x 9
add to favorites
×
Save as Personal and add changes to this tab that will be seen only by you. Learn more ›
×
You can save this tab as Personal to edit and correct it or add notes. All changes will be seen only by you. Learn more »
launch autoscroll
font size
0
reset
how to read this tab
guitar tuner
edit
Autoscroll
slow
fast
+/-
esc
set tempo
stop
Author
Difficulty
Scarborough fair - Fingerstyle
Tabbed by: Brendan Stephensen
E-mail: brendanstephensen@hotmail.com
Tuning:EADGBe

e|-----0-0-0------------0-3-5-3-0-2---0---5-5-5\3-3-0-0---------------------0-------------|
B|----------0-1-0-------1-----------3-------------------3-1h3p1-1p0-----------3-1-0-------|
G|-2-2------------2-------4-5---0-2---1-----5-----0-----------------0-2-0-2---------2-0-2-|
D|-2--------------2-------------------2-----------------------------------2---------2-2-2-|
A|-0---3----------0-2-3-----5---0-0---------0-----3---3-2-0---------------0---2-0---0-2-0-|
E|----------3---------------------------0-----------------------3-----------------3-------|

e|-----0-0-0------------0-3-5-3-0-2---0---5-5-5\3-3-0-0---------------------0-------------|
B|----------0-1-0-------1-----------3-------------------3-1h3p1-1p0-----------3-1-0-------|
G|-2-2------------2-------4-5---0-2---1-----5-----0-----------------0-2-0-2---------2-0-2-|
D|-2--------------2-------------------2-----------------------------------2---------2-2-2-|
A|-0---3----------0-2-3-----5---0-0---------0-----3---3-2-0---------------0---2-0---0-2-0-|
E|----------3---------------------------0-----------------------3-----------------3-------|

e|-----0-0-0------------0-3-5-3-0-2---0---5-5-5\3-3-0-0---------------------0-------------|
B|----------0-1-0-------1-----------3-------------------3-1h3p1-1p0-----------3-1-0-------|
G|-2-2------------2-------4-5---0-2---1-----5-----0-----------------0-2-0-2---------2-0-2-|
D|-2--------------2-------------------2-----------------------------------2---------2-2-2-|
A|-0---3----------0-2-3-----5---0-0---------0-----3---3-2-0---------------0---2-0---0-2-0-|
E|----------3---------------------------0-----------------------3-----------------3-------|

e|-----0-0-0------------0-3-5-3-0-2---0---5-5-5\3-3-0-0---------------------0-------------|
B|----------0-1-0-------1-----------3-------------------3-1h3p1-1p0-----------3-1-0-------|
G|-2-2------------2-------4-5---0-2---1-----5-----0-----------------0-2-0-2---------2-0-2-|
D|-2--------------2-------------------2-----------------------------------2---------2-2-2-|
A|-0---3----------0-2-3-----5---0-0---------0-----3---3-2-0---------------0---2-0---0-2-0-|
E|----------3---------------------------0-----------------------3-----------------3-------|

e|-----0-0-0------------0-3-5-3-0-2---0---5-5-5\3-3-0-0---------------------0-------------|
B|----------0-1-0-------1-----------3-------------------3-1h3p1-1p0-----------3-1-0-------|
G|-2-2------------2-------4-5---0-2---1-----5-----0-----------------0-2-0-2---------2-0-2-|
D|-2--------------2-------------------2-----------------------------------2---------2-2-2-|
A|-0---3----------0-2-3-----5---0-0---------0-----3---3-2-0---------------0---2-0---0-2-0-|
E|----------3---------------------------0-----------------------3-----------------3-------|

Are you going to Scarborough Fair?
Parsley, sage, rosemary, and thyme
Remember me to one who lives there
She once was a true love of mine

Tell her to make me a cambric shirt
Parsley, sage, rosemary, and thyme
Without no seam nor needlework
Then she'll be a true love of mine

Tell her to find me an acre of land
Parsley, sage, rosemary, and thyme
Between the salt water and the sea strand
Then she'll be a true love of mine

Tell her to reap it in a sickle of leather
Parsley, sage, rosemary, and thyme
And to gather it all in a bunch of heather
Then she'll be a true love of mine

Are you going to Scarborough Fair?
Parsley, sage, rosemary, and thyme
Remember me to one who lives there
She once was a true love of mine

            
            
Suggest correction
Creating personal tab
Creating personal tab
You can edit any tab online and save it as your Personal.

You can edit, replace or remove any tab part or add personal notes – all changes will be seen only by you.

Personal tabs can be accessed anytime from any device, even offline.
Learn more »
comments
print report bad tab
guest
You may want to rate the tab now too:
select rating
Wanna post a correction for this tab? Suggest correction