Oops, an error
Loading. Please wait.
We have Chord Pro version of Scarborough Fair.
It's the closest thing you can get to the original song and it has interactive parts. Check out the tab »
×

Scarborough Fair tab

version 2
version 2

Whole song

Interactive

Video

  • Breakdown of fingerstyle pattern and chord explanation.
28,546 views 24 this week
8 commentsread comments
1 2 3 4 5
x 15
add to favorites
×
Save as Personal and add changes to this tab that will be seen only by you. Learn more ›
×
You can save this tab as Personal to edit and correct it or add notes. All changes will be seen only by you. Learn more »
launch autoscroll
font size
0
reset
how to read this tab
guitar tuner
edit
Autoscroll
slow
fast
+/-
esc
set tempo
stop
Difficulty
Verse one

This song has the same riff all the way through so repeat

Are you going to Scarborough fair?
Parsley, sage, rosemary and thyme,
Remember me to one who lives there,
She once was a true love of mine.

E/-----------------------10-12-10---9-------12-12-12-10-----------------|
B/-----12-12-----------12--------12---10-12-------------12-12-10--------|
G/-9-9------11-12-11-9------------------------------------------12-11---|
D/-------------------------------------------------------------------12-|
A/----------------------------------------------------------------------|
E/----------------------------------------------------------------------|

E/--------------------|
B/---12-10------------|
G/-9-------12-11-9--9-|
D/----------------12--|
A/--------------------|
E/--------------------|

Just repeat for every verse

            
            
Suggest correction
Creating personal tab
Creating personal tab
You can edit any tab online and save it as your Personal.

You can edit, replace or remove any tab part or add personal notes – all changes will be seen only by you.

Personal tabs can be accessed anytime from any device, even offline.
Learn more »
comments
print report bad tab
8 comments total. Showing first comments.
+1 reply
The(good)finger 10 May 20, 2007 05:23 PM

dude, i love it

+2 reply
anymower 63 Aug 06, 2007 01:49 AM

You earned my eternal gratefulness for this tab! I am 99% sure it is 100% correct!

0 reply
mister_t 10 Aug 29, 2007 08:13 AM

This isn't what they play, it's what they sing!

guest
Wanna post a correction for this tab? Suggest correction