Oops, an error
Loading. Please wait.
We have an official The Sound Of Silence tab made by UG professional guitarists. Check out the tab »
×

The Sound Of Silence tab

version 6
version 6

Whole song

Video

  • It's a Fingerstyle Arrangement in Em (Capo 2nd Fret).
64,382 views 15 this week
no commentswrite comment
1 2 3 4 5
x 7
add to favorites
×
Save as Personal and add changes to this tab that will be seen only by you. Learn more ›
×
You can save this tab as Personal to edit and correct it or add notes. All changes will be seen only by you. Learn more »
launch autoscroll
font size
0
reset
how to read this tab
guitar tuner
edit
Autoscroll
slow
fast
+/-
esc
set tempo
stop
Author
Difficulty
intermediate
About this tab version
'The Sound Of Silence' played in the key of Bm. Was this info helpful? Yes No
The Sound Of Silence played in the key of Bm.


E|-- 2------ 2------ 2------ 2----|---------------------- 2---- 2 0|
B|------ 2-------------- 2--------|-------------- 3-- 3---------- 2|
G| 4------------ 4-------------- 4|-------- 4 4------------------ 2|
D|--------------------------------|--------------------------------|
A| 2------------------------------|------------------------------ 0|
E|--------------------------------|--------------------------------|

E|---- 0---- 0-------- 0---- 0----|---------------------- 0-- 0----|
B|------ 0-------------- 0--------|-------------- 2-- 2---------- 3|
G|-------------- 2----------------|-------- 2 2-- 2-- 2---------- 4|
D|--------------------------------|---- 2-- 2 2-- 2-------------- 4|
A|-------------- 0----------------| 0-------------- 0--------------|
E|--------------------------------|--------------------------------|

E|-- 2------ 2------ 2------ 2----|-------------- 2-- 2-- 5-- 5-- 7|
B|-------- 2------------ 2--------|------ 3-- 3-- 3-- 3-- 3-- 3-- 3|
G|-------------- 4----------------|------ 4-- 4-- 2-- 2-- 2-- 2-- 4|
D|-------------- 4----------------|-- 4-- 4-- 4--------------------|
A| 2-------------- 2------------ 2|-------------- 2----------------|
E|--------------------------------|------------------------------ 3|

E|------ 7-- 5-------------- 5----|-------------- 2-- 2-- 5-- 5-- 7|
B|------ 3-- 3---------- 3--------|-------- 3 3-- 3-- 3-- 3-- 3-- 3|
G|-- 4------ 2------ 2------------|---- 2-- 2 2-- 2-- 2-- 2-- 2-- 4|
D|-------------- 0-------------- 0|-------------- 0----------------|
A|--------------------------------|--------------------------------|
E|--------------------------------|------------------------------ 3|

E|------ 7-- 5-------------- 5----|-------------- 7-- 7------------|
B|------ 3-- 3---------- 3--------|------ 3-- 3-- 3---- 3---- 3----|
G|-- 4-- 4-- 2------ 2------------|-- 2-- 2-- 2-- 4---- 4---- 4----|
D|-------------- 0-------------- 0|--------------------------------|
A|--------------------------------|--------------------------------|
E|--------------------------------|---------------- 3------ 3---- 3|

E|------ 7-- 9--10--10---------- 9|------ 7------ 5---------- 5----|
B|-- 3-- 3------10--10---------- 8|------ 8------ 7------ 7--------|
G|---- 4 4------ 9-- 9------ 9----|-- 7------ 7------ 7------------|
D|---------------------- 9------ 9|-------------- 0-------------- 0|
A|--------------10----------------|--------------------------------|
E|------ 3------------------------|--------------------------------|

E|------ 7-- 5-- 2----------------|------------------------------ 5|
B|------ 7-- 7-- 3------ 3--------|------ 3---------------- 3 3-- 5|
G|-- 7-- 7-- 7------ 2------------|------ 2------------ 2-- 2 2----|
D|-------------- 0----------------|-- 4------------ 0--------------|
A|-------------------------- 4----| 2-------- 4--------------------|
E|--------------------------------|--------------------------------|

E|--------------------------------|------------ 2------ 2---- 2----|
B|---------- 5-------------- 2-- 3|-------- 2------------ 2--------|
G|------ 6-------------- 2--------|-- 4------------ 4--------------|
D|-- 7-------------- 2------------|---------------- 4--------------|
A| 0------------ 0-------------- 2|---------------- 2--------------|
E|--------------------------------|--------------------------------|

E|---------------------- 2-- 2----|--------------------------------|
B|------ 0-- 0-- 3-- 3-- 3-- 5----| 5-------- 2--------------------|
G|------ 2-- 2-- 4---- 4-- 4 4----| 2---- 2-- 2-- 2------ 2--------|
D|-- 0---- 0 0-- 4---- 4----------|-- 2-------------- 2------ 2----|
A| 2------------ 5----------------|--------------------------------|
E|------------------------ 2-- 3--| 5-------- 3-- 2-------------- 0|

E|---------------------- 0--------|--------------------------------|
B|-------------- 2-- 2-- 2---- 5--| 3---------- 5-- 7------ 5------|
G|------ 2-- 2-- 2-- 2-- 0---- 3--| 2------ 2-- 3-- 4------ 3------|
D|---- 2 2-- 2-- 2-- 2-------- 5--|---- 4------ 5-- 4-- 4------ 5--|
A|-------------- 4-------- 1-- 3--| 2---------- 4-- 5------ 4------|
E|--------------------------------|--------------------------------|

E|------------------------ 5-- 5--| 7------ 7-- 5------------------|
B|---- 3-- 3-- 3-- 7-- 7-- 3-- 3--| 3------ 7-- 7------ 7----------|
G|---- 2-- 0-- 0-- 5-- 5-- 3-- 3--| 4-- 4-- 7-- 7------ 7---- 9----|
D|---- 4-- 2-- 2-- 4-- 4----------|-------------------------- 7----|
A| 2------ 1-- 0------------------|--------------------------------|
E|-------------- 4-------- 2------| 3------ 4---- 5------ 9--------|

E|------------------------------ 7|--------------------------------|
B|-------------- 7---- 7--1010-- 8|--------12--10------------------|
G|------ 7-- 7-- 9---- 9-- 9 9----|---- 7-- 9-- 7------ 7 7------ 7|
D|---- 7 7-- 7-- 7---- 7-- 8 8----|--------11-- 7------ 7---- 9----|
A|--------------------------------|---------------------- 7------ 8|
E|10-------------- 9-- 9-- 8-- 8--| 7------ 9----10----------------|

E|-------------- 7---- 7----------|------ 7---- 910--10------------|
B|---------------- 7-- 7----------|---- 8 8---- 810----10----------|
G|------ 7-- 7---- 7-- 7---- 7----|---- 7 9---- 9 9---- 9----------|
D|---- 7 7-- 7---------------- 7--|---- 9---------------------- 8--|
A|------ 9--------10------ 9---- 7|--------------------------------|
E|--------------------------------|------10-------- 9------ 8------|

E|------ 9-- 7-- 5----------------|------ 7---- 5-- 2--------------|
B|------ 7-- 7-- 7------ 2--------|------ 7---- 5-- 3--------------|
G| 7---- 6-- 6-- 7------ 2------ 1|---- 2 5---- 4-- 2------ 2-- 2--|
D|---- 7------------------ 2---- 0|---- 0-------------- 4------ 2--|
A|--------------------------------|------ 6---- 4-- 5---------- 4--|
E| 7---- 6-------- 5-- 4-- 3-- 2--| 1-- 0--------------------------|

E|------------------------------ 5|--------------------------------|
B| 3---------------- 3---- 3 3----| 5---------- 7---------------- 3|
G| 2---------- 2------ 2-- 2 2----| 6 6-------- 6 4------ 4---- 6--|
D|---- 4------ 2---- 4---- 4-- 4--|------------------ 4-- 5---- 4--|
A| 2------ 4---- 5----------------|------ 6------ 5-------- 4-- 3--|
E|------------------------ 2------| 0------------------------------|

E|--------------------------------|--------------------------------|
B|-------------------- 3-- 3-- 3--|10------------------------------|
G| 4-- 4-------------- 4-- 3-- 3--| 9---------- 7------ 6-- 6-- 6--|
D| 4-- 4------ 4------ 4-- 2-- 2--| 7-- 7------ 9------ 5-- 5-- 5--|
A| 2------------------------------| 9------ 8------ 7------ 6------|
E|-------- 5---- 4-------- 3------|--------------------------------|

E|------------------------------ 5|--------------------------------|
B| 3---------------- 3-- 3-- 3-- 8|-------------------- 2 2---- 2--|
G| 4-- 4-------------- 2 4-- 4-- 7|---- 7------ 6------ 4 4---- 2--|
D| 5-- 5------ 5------ 4 5---- 5--|------------ 4------ 4-- 3-- 2--|
A| 5------ 4---- 3-------- 2------|--------------------------------|
E|------------------------------ 6|-------- 5---- 4-------- 3-- 2--|

E|--------------------------------|--------------------------------|
B| 3-- 0--------------------------|--------------------------------|
G| 2-- 0--------------------------|--------------------------------|
D| 1-- 0--------------------------|--------------------------------|
A|--------------------------------|--------------------------------|
E| 1-- 0--------------------------|--------------------------------|

            
            
Suggest correction
Creating personal tab
Creating personal tab
You can edit any tab online and save it as your Personal.

You can edit, replace or remove any tab part or add personal notes – all changes will be seen only by you.

Personal tabs can be accessed anytime from any device, even offline.
Learn more »
comments
print report bad tab
guest
You may want to rate the tab now too:
select rating
Wanna post a correction for this tab? Suggest correction