Oops, an error
Loading. Please wait.

Seeing Out The Angel bass

419 views 1 this week
no commentswrite comment
1 2 3 4 5
3 more votes to show rating
add to favorites
×
Save as Personal and add changes to this tab that will be seen only by you. Learn more ›
×
You can save this tab as Personal to edit and correct it or add notes. All changes will be seen only by you. Learn more »
launch autoscroll
font size
0
reset
guitar tuner
edit
Autoscroll
slow
fast
+/-
esc
set tempo
stop
Author
Difficulty
-------------------------------------------------------------------------------
			     Seeing Out The Angel - Simple Minds
-------------------------------------------------------------------------------

Tabbed By : j.easby
e-mail: j.easby@ntlworld.com

Tuning: EADG

A great song, and a great simple bass line. Just goes to show how effective the bass can 
be. Its not all funk you know!!

Intro, and voice leading to voices......

G|-------p0H2--------p0H2-------p0H2--|
D|------------------------------------|Wash and Repeat!!
A|--0-0-------------------------------|
E|-------------3-3-3-----3-3-3--------|

Chorus, seeing out the angel.....

G|-------xx--------p0H2-------p0H2--|
D|----------------------------------|xx notes are not played
A|--x-x-----------------------------|
E|----------x-x-x-----x-x-x---------|

Bridges and rescued by the first eye.....

G|-------p0H2--------p0H2-------p0H2--|
D|------------------------------------|Wash and Repeat!!
A|--0-0-------------------------------|
E|-----------3-3-3--------3-3-3-------|


| /  slide up
| \  slide down
| h  hammer-on
| p  pull-off
| ~  vibrato
| +  harmonic
| x  Mute note
===============================================================================

            
            
Suggest correction
Creating personal tab
Creating personal tab
You can edit any tab online and save it as your Personal.

You can edit, replace or remove any tab part or add personal notes – all changes will be seen only by you.

Personal tabs can be accessed anytime from any device, even offline.
Learn more »
Give kudos to tab author, rate the tab!
1 2 3 4 5
comments
print report bad tab
guest
You may want to rate the tab now too:
select rating
Wanna post a correction for this tab? Suggest correction