Oops, an error
Loading. Please wait.

Boom tab

version 2
version 2

Whole song

2,317 views 1 this week
no commentswrite comment
1 2 3 4 5
x 4
add to favorites
×
Save as Personal and add changes to this tab that will be seen only by you. Learn more ›
×
You can save this tab as Personal to edit and correct it or add notes. All changes will be seen only by you. Learn more »
launch autoscroll
font size
0
reset
how to read this tab
guitar tuner
edit
Autoscroll
slow
fast
+/-
esc
set tempo
stop
-------------------------------------------------------------------------------
                             Boom - Simple Plan
-------------------------------------------------------------------------------

                      Tabbed by:https://soundcloud.com/carlito-t
              Link to the video:https://www.youtube.com/watch?v=UpRxhcCAeVUTuning:DADGBe

Introduction harmonics 
e|----------------|
B|------7+--------|
G|----------------|
D|--7+------------|let ring
A|----------------|
E|--5+------------|

Refrain Boom
Rythmic Guitar
e|---------------------------------------------------------------------------|
B|---------------------------------------------------------------------------|
G|---------------------------------------------------------------------------|
D|---5-5-5-5-5-5-5--X-0-0-0-0-0-0--X-9-9-9-9-9-9-9--X-7-7-7-7-7-7-7-7--------| X2
A|---5-5-5-5-5-5-5--X-0-0-0-0-0-0--X-9-9-9-9-9-9-9--X-7-7-7-7-7-7-7-7--------|
E|---5-5-5-5-5-5-5--X-0-0-0-0-0-0--X-9-9-9-9-9-9-9--X-7-7-7-7-7-7-7-7--------|

Riff Guitar
e|----------------------------|      Let ring the last 7 at the end
B|-----10-8-9-------7---------|
G|---7----------7-9---9-7-----| X4
D|----------------------------|
A|----------------------------|

Verse 1
e|--------------------------------------------------------------------------------|
B|--------------------------------------------------------------------------------|
G|---------------------------7---*-*----------------------------------------------|* Play this two chords
D|-5-5-5-5--5-5-5-5--0-0-0-0-X--9-9---9-9-9-9--9-9-9-9--7-7-7-7-7-7-7-------------| 2 times faster
A|-5-5-5-5--5-5-5-5--0-0-0-0-5--9-9---9-9-9-9--9-9-9-9--7-7-7-7-7-7-7-------------|
E|-5-5-5-5--5-5-5-5--0-0-0-0----9-9---9-9-9-9--9-9-9-9--7-7-7-7-7-7-7-------------|
PM * * * *    * *    * * * *    * *   * * * *    * *    * * * *   *

e|--------------------------------------------------------------------------------|
B|--------------------------------------------------------------------------------|
G|---------------------------7---*-*----------------------------------------------|
D|-5-5-5-5--5-5-5-5--0-0-0-0-X--9-9--9-9-9-9--9-9-9-9--7-7-7-7-7-7--7\5-----------|
A|-5-5-5-5--5-5-5-5--0-0-0-0-5--9-9--9-9-9-9--9-9-9-9--7-7-7-7-7-7--7\5-----------|
E|-5-5-5-5--5-5-5-5--0-0-0-0----9-9--9-9-9-9--9-9-9-9--7-7-7-7-7-7--7\5-----------|
PM * * * *    * *    * * * *    * *  * * * *    * *    * * * *   *

e|--------------------------------------------------------------------------------|
B|--------------------------------------------------------------------------------|
G|---------------------------7---*-*----------------------------------------------|
D|-5-5-5-5--5-5-5-5--0-0-0-0-X--9-9--9-9-9-9--9-9-9-9--7-7-7-7-7-7-7-(/9)---------|
A|-5-5-5-5--5-5-5-5--0-0-0-0-5--9-9--9-9-9-9--9-9-9-9--7-7-7-7-7-7-7-(/9)---------|
E|-5-5-5-5--5-5-5-5--0-0-0-0----9-9--9-9-9-9--9-9-9-9--7-7-7-7-7-7-7-(/9)---------|
PM * * * *    * *        * *    * *  * * * *    * *    * * * *   *

e|--------------------------------------------------------------------------------|
B|--------------------------------------------------------------------------------|
G|---------------------------7---*-*----------------------------------------------|
D|-5-5-5-5--5-5-5-5--0-0-0-0-X--9-9--9-9-9-9--9-9-9-9--7-7-7-7-7-7-7-7-X-X-X-X----|
A|-5-5-5-5--5-5-5-5--0-0-0-0-5--9-9--9-9-9-9--9-9-9-9--7-7-7-7-7-7-7-7-X-X-X-X----|
E|-5-5-5-5--5-5-5-5--0-0-0-0----9-9--9-9-9-9--9-9-9-9--7-7-7-7-7-7-7-7-X-X-X-X----|
PM * * * *    * *    * * * *    * *  * * * *    * *    * * * *   *

Chorus
e|--------------------------------------------------------------------------------|
B|--------------------------------------------------------------------------------|
G|--------------------------------------------------------------------------------|
D|--5-5-5-5-5-5-5-5---X-0-0-0-0-0-0-0-0---x-9-9-9-9-9-9-9-9---X-7-7-7-7-7-7-7-7---| X2
A|--5-5-5-5-5-5-5-5---X-0-0-0-0-0-0-0-0---X-9-9-9-9-9-9-9-9---X-7-7-7-7-7-7-7-7---|
E|--5-5-5-5-5-5-5-5---x-0-0-0-0-0-0-0-0---X-9-9-9-9-9-9-9-9---X-7-7-7-7-7-7-7-7---|

Chorus Boom 2

Rythmic Guitar
e|----------------------------------------------------------------------|    |----|
B|----------------------------------------------------------------------|    |----|
G|----------------------------------------------------------------------|    |----|
D|---5-5-5-5-5-5-5--X-0-0-0-0-0-0--X-9-9-9-9-9-9-9--X-7-7-7-7-7-7-7-7---| X2 |-5--|
A|---5-5-5-5-5-5-5--X-0-0-0-0-0-0--X-9-9-9-9-9-9-9--X-7-7-7-7-7-7-7-7---|    |-5--|
E|---5-5-5-5-5-5-5--X-0-0-0-0-0-0--X-9-9-9-9-9-9-9--X-7-7-7-7-7-7-7-7---|    |-5--| Let ring


Riff Guitar
e|--------------------------|      
B|-----10-8-9-------7-------|
G|---7----------7-9---9-7---| X5
D|--------------------------|
A|--------------------------|

Verse 2                         
e|--------------------------------------------------------------------------------|
B|--------------------------------------------------------------------------------| *
G|---------------------------7-----*-*--------------------------------------------| Play this 2 chords
D|-5-5-5-5--5-5-5-5--0-0-0-0-X-0--9-9--9-9-9-9--9-9-9-9--7-7-7-7-7-7-7------------| 2 times faster
A|-5-5-5-5--5-5-5-5--0-0-0-0-5-0--9-9--9-9-9-9--9-9-9-9--7-7-7-7-7-7-7------------|
E|-5-5-5-5--5-5-5-5--0-0-0-0---0--9-9--9-9-9-9--9-9-9-9--7-7-7-7-7-7-7------------|
PM * * * *    * *    * * * *   *- * *  * * * *    * *    * * * *   *

e|--------------------------------------------------------------------------------|
B|--------------------------------------------------------------------------------|
G|---------------------------7-----*-*--------------------------------------------|
D|-5-5-5-5--5-5-5-5--0-0-0-0-X-0--9-9--9-9-9-9--9-9-9-9---------------------------|
A|-5-5-5-5--5-5-5-5--0-0-0-0-5-0--9-9--9-9-9-9--9-9-9-9---------------------------|
E|-5-5-5-5--5-5-5-5--0-0-0-0---0--9-9--9-9-9-9--9-9-9-9---------------------------|
PM * * * *    * *    * * * *   *  * *  * * * *    * *    

e|--------------------------------------------------------------------------------|
B|--------------------------------------------------------------------------------| 
G|---------------------------7-----*-*--------------------------------------------| 
D|-5-5-5-5--5-5-5-5--0-0-0-0-X-0--9-9--9-9-9-9--9-9-9-9--7-7-7-7-7-7-7-(/9)-------| 
A|-5-5-5-5--5-5-5-5--0-0-0-0-5-0--9-9--9-9-9-9--9-9-9-9--7-7-7-7-7-7-7-(/9)-------|
E|-5-5-5-5--5-5-5-5--0-0-0-0---0--9-9--9-9-9-9--9-9-9-9--7-7-7-7-7-7-7-(/9)-------|
PM * * * *    * *        * *   *  * *  * * * *    * *    * * * *   *

e|--------------------------------------------------------------------------------|
B|--------------------------------------------------------------------------------|
G|---------------------------7-----*-*--------------------------------------------|
D|-5-5-5-5--5-5-5-5--0-0-0-0-X-0--9-9--9-9-9-9--9-9-9-9--7-7-7-7-7-X-X-X-X--------|
A|-5-5-5-5--5-5-5-5--0-0-0-0-5-0--9-9--9-9-9-9--9-9-9-9--7-7-7-7-7-X-X-X-X--------|
E|-5-5-5-5--5-5-5-5--0-0-0-0---0--9-9--9-9-9-9--9-9-9-9--7-7-7-7-7-X-X-X-X--------|
PM * * * *    * *    * * * *   *  * *  * * * *    * *    * * * *

Riff guitar
e|----------------------------------------------|
B|--7-7-----------7--------7-7------------------|
G|------7-----7----------------7-----7---7------| X2
D|--------7-7---7---7------------7-7---7---7----|
A|----------------------------------------------|
E|----------------------------------------------|

Chorus 
e|--------------------------------------------------------------------------------|
B|--------------------------------------------------------------------------------|
G|--------------------------------------------------------------------------------|
D|--5-5-5-5-5-5-5-5---X-0-0-0-0-0-0-0-0---x-9-9-9-9-9-9-9-9---X-7-7-7-7-7-7-7-7---| X2
A|--5-5-5-5-5-5-5-5---X-0-0-0-0-0-0-0-0---X-9-9-9-9-9-9-9-9---X-7-7-7-7-7-7-7-7---|
E|--5-5-5-5-5-5-5-5---X-0-0-0-0-0-0-0-0---X-9-9-9-9-9-9-9-9---x-7-7-7-7-7-7-7-7---|

Chorus Boom 3

Rythmic Guitar
e|----------------------------------------------------------------------|    |----|
B|----------------------------------------------------------------------|    |----|
G|----------------------------------------------------------------------|    |----|
D|---5-5-5-5-5-5-5--X-0-0-0-0-0-0--X-9-9-9-9-9-9-9--X-7-7-7-7-7-7-7-7---| X2 |-5--|
A|---5-5-5-5-5-5-5--X-0-0-0-0-0-0--X-9-9-9-9-9-9-9--X-7-7-7-7-7-7-7-7---|    |-5--|
E|---5-5-5-5-5-5-5--X-0-0-0-0-0-0--X-9-9-9-9-9-9-9--X-7-7-7-7-7-7-7-7---|    |-5--| Let ring


Riff Guitar
e|--------------------------|      
B|-----10-8-9-------7-------|
G|---7----------7-9---9-7---| X4  
D|--------------------------|
A|--------------------------|

Piano break (you can play the riff guitar from the chorus
+Pre Chorus Drums and voice

Chorus 
e|--------------------------------------------------------------------------------|
B|--------------------------------------------------------------------------------|
G|--------------------------------------------------------------------------------|
D|--5-5-5-5-5-5-5-5---X-0-0-0-0-0-0-0-0---x-9-9-9-9-9-9-9-9---X-7-7-7-7-7-7-7-7---| X4
A|--5-5-5-5-5-5-5-5---X-0-0-0-0-0-0-0-0---X-9-9-9-9-9-9-9-9---X-7-7-7-7-7-7-7-7---|
E|--5-5-5-5-5-5-5-5---X-0-0-0-0-0-0-0-0---X-9-9-9-9-9-9-9-9---x-7-7-7-7-7-7-7-7---|

(Optional) You can play the riff guitar from the Verse 

Chorus Boom 4
Rythmic Guitar
e|---------------------------------------------------------------------------|
B|---------------------------------------------------------------------------|
G|---------------------------------------------------------------------------|
D|---5-5-5-5-5-5-5--X-0-0-0-0-0-0--X-9-9-9-9-9-9-9--X-7-7-7-7-7-7-7-7--------| X2
A|---5-5-5-5-5-5-5--X-0-0-0-0-0-0--X-9-9-9-9-9-9-9--X-7-7-7-7-7-7-7-7--------|
E|---5-5-5-5-5-5-5--X-0-0-0-0-0-0--X-9-9-9-9-9-9-9--X-7-7-7-7-7-7-7-7--------|

Riff Guitar
e|----------------------------|     
B|-----10-8-9-------7---------|
G|---7----------7-9---9-7-----| X4
D|----------------------------|
A|----------------------------|



************************************

| /   slide up
| \   slide down
| h   hammer-on
| p   pull-off
| ~   vibrato
| +   harmonic
| x   Mute note
| b   Bend
| pb  Pre-bend
| br  Bend release
| pbr Pre-bend release
| brb Bend release bend

************************************

            
            
Suggest correction
Creating personal tab
Creating personal tab
You can edit any tab online and save it as your Personal.

You can edit, replace or remove any tab part or add personal notes – all changes will be seen only by you.

Personal tabs can be accessed anytime from any device, even offline.
Learn more »
comments
print report bad tab
guest
You may want to rate the tab now too:
select rating
Wanna post a correction for this tab? Suggest correction