Oops, an error
Loading. Please wait.

Happy Together tab

version 3
version 3

Whole song

Interactive

3,886 views 3 this week
no commentswrite comment
1 2 3 4 5
2 more votes to show rating
add to favorites
×
Save as Personal and add changes to this tab that will be seen only by you. Learn more ›
×
You can save this tab as Personal to edit and correct it or add notes. All changes will be seen only by you. Learn more »
launch autoscroll
font size
0
reset
how to read this tab
guitar tuner
edit
Autoscroll
slow
fast
+/-
esc
set tempo
stop
this is my version of this tab i hope you like it and it can help you to sth
OK here it goes:

----------------------------------------------------------------------|
-----------------------------10---------------------------------------|
----------------------------------------------------------------------|
----------------------------------------------------------------------|
----------------------------------------------------------------------|
----------------------------------------------------------------------|
here you have to turn up the volume slowly

then:

----------------------------------------------------------------------|
----------------------------------------------------------------------|
---8-8-8-12-8-8-8-12-8-8-8-12-14-14-14-14-15-14-12-10-----------------|
---8-8-8-12-8-8-8-12-8-8-8-12-14-14-14-14-15-14-12-10-----------------|
---6-6-6-10-6-6-6-10-6-6-6-10-12-12-12-12-13-12-10-8------------------|
----------------------------------------------------------------------|
 this is played twice

STOPHE:

imagine me and you ,i do i think about the day and night it's only right...
-------------------------------------------------------------------------|
-------------------------------------------------------------------------|
-------------------------------------------------------------------------|
---9-9-9-x-9-x-9/7-7-7-x-7-x-7/5-5-5-x-5-x-5/3-3-3-x-3-x-3/9-------------|
---9-9-9-x-9-x-9/7-7-7-x-7-x-7/5-5-5-x-5-x-5/3-3-3-x-3-x-3/9-------------|
---7-7-7-x-7-x-7/5-5-5-x-5-x-5/3-3-3-x-3-x-3/1-1-1-x-1-x-1/7-------------|

this is also played twice

CHORUS:

--------------------------------------------------------------------------|
--------------------------------------------------------------------------|
--------------------------------------------------------------------------|
---5-5-5-5-3-3-3-3-5-5-5-5-8-8-8-8---5-5-5-5-3-3-3-3-5-5-5-5-8-8-8-8------|
---5-5-5-5-3-3-3-3-5-5-5-5-8-8-8-8---5-5-5-5-3-3-3-3-5-5-5-5-8-8-8-8------|
---3-3-3-3-1-1-1-1-3-3-3-3-6-6-6-6---3-3-3-3-1-1-1-1-3-3-3-3-6-6-6-6------|


then you play again the strophe

me and you and you and me,no matter...

before the solo you play the chorus two times


then the SOLO:


----------------------------------------------------------------------|
--9-10-11-10-10-10-11-12-13-12-12-12-13-14-15-14-14-14-15-16-18-17-16-|
----------------------------------------------------------------------|
----------------------------------------------------------------------|
----------------------------------------------------------------------|
----------------------------------------------------------------------|

---------------------------------------------------------------------|
--15-----9-10-11-10-10-10-11-12-13-12-12-12-13-14-15-14-14-14-15-16--|
---------------------------------------------------------------------|
---------------------------------------------------------------------|
---------------------------------------------------------------------|
---------------------------------------------------------------------|


---------------------------------------------------------------------|
--18-19--------------------------------------------------------------|
---------------------------------------------------------------------|
---------------------------------------------------------------------|
---------------------------------------------------------------------|
---------------------------------------------------------------------|

THEN IS:

---------------------------------------------------------------------|
--10-9-7-------------------------------------------------------------|
---------------------------------------------------------------------|
--------------------------------------------------5-5-5-5--5-5-5-5---|
--------------------------------------------------5-5-5-5--5-5-5-5---|
--------------------------------------------------3-3-3-3--3-3-3-3---|

then play the chorus twice and the end is just

----------------------------------------------------------------------------|
----------------------------------------------------------------------------|
--7-7-7-7-7-7-7-7-7-7-7-7-7-7-7-7-7-7-7-7-7-7-7-7-7-7-7-7-7-7-7-7-7-7-7-7-7-|
--7-7-7-7-7-7-7-7-7-7-7-7-7-7-7-7-7-7-7-7-7-7-7-7-7-7-7-7-7-7-7-7-7-7-7-7-7-|
--5-5-5-5-5-5-5-5-5-5-5-5-5-5-5-5-5-5-5-5-5-5-5-5-5-5-5-5-5-5-5-5-5-5-5-5-5-|
----------------------------------------------------------------------------|

        THE END

            
            
Suggest correction
Creating personal tab
Creating personal tab
You can edit any tab online and save it as your Personal.

You can edit, replace or remove any tab part or add personal notes – all changes will be seen only by you.

Personal tabs can be accessed anytime from any device, even offline.
Learn more »
Give kudos to tab author, rate the tab!
1 2 3 4 5
comments
print report bad tab
guest
Wanna post a correction for this tab? Suggest correction