Oops, an error
Loading. Please wait.

Holding On tab

5,817 views 1 this week
3 commentsread comments
1 2 3 4 5
x 4
add to favorites
×
Save as Personal and add changes to this tab that will be seen only by you. Learn more ›
×
You can save this tab as Personal to edit and correct it or add notes. All changes will be seen only by you. Learn more »
launch autoscroll
font size
0
reset
how to read this tab
guitar tuner
edit
Autoscroll
slow
fast
+/-
esc
set tempo
stop
Author
Difficulty
   Hey! This song is not that hard to do. I did my best. i learned by ear. soo enjoy!

Standard tuning
EABDGE
|--------------------------------------------------------------------------|
|--------------------------------------------------------------------------|
|--------------------------------------------------------------------------|
|--------------------------------------------------------------------------|
|--------------------------------------------------------------------------|
|---6--11-11-11-11-11-11-11--11--11--11-11-11-11-11-11-11-11-11-11-11-11---|

2nd guitar   it fades out on this part
|--------------------------------------------------------------------------|
|--------8---8---8---8----9---9---9---9------------------------------------|
|----------8---8---8---8----8---8---8---8----------------------------------|
|------------8---8---8---8----8---8---8---8--------------------------------|

 hard rock part.
|--------------------------------------------------------------------------|
|---8-8-8-8-8---6-6-6-6-6----9-9-9-9----8-8-8-8-8---6-6-6-6-6----9-9-9-9---|
|---8-8-8-8-8---7-7-7-7-7----8-8-8-8----8-8-8-8-8---7-7-7-7-7----8-8-8-8---|
|---8-8-8-8-8---8-8-8-8-8----8-8-8-8----8-8-8-8-8---8-8-8-8-8----8-8-8-8---|
|--------------------------------------------------------------------------|
|------------------------------------4-6--------------------------------4-6|

verse (no guitar)

chorus
|--------------------------------------------------------------------------|
|---8-8-8-8-8---6-6-6-6-6----9-9-9-9----8-8-8-8-8---6-6-6-6-6----9-9-9-9---|
|---8-8-8-8-8---7-7-7-7-7----8-8-8-8----8-8-8-8-8---7-7-7-7-7----8-8-8-8---|
|---8-8-8-8-8---8-8-8-8-8----8-8-8-8----8-8-8-8-8---8-8-8-8-8----8-8-8-8---|
|--------------------------------------------------------------------------|
|------------------------------------4-6--------------------------------4-6|


that is basicly all you pretty much need to know!



            
            
Suggest correction
Creating personal tab
Creating personal tab
You can edit any tab online and save it as your Personal.

You can edit, replace or remove any tab part or add personal notes – all changes will be seen only by you.

Personal tabs can be accessed anytime from any device, even offline.
Learn more »
comments
print report bad tab
3 comments total.
+1 reply
daveGY 10 Sep 27, 2008 12:39 AM

can anyone convert this into guitar pro plzz

+1 reply
daveGY 10 Sep 27, 2008 04:12 PM

no offense yo it sux no effort

+1 reply
Lemurs4mangos 1,616 Oct 02, 2008 05:56 PM

Dude... wtf EABDGE? Thats not the strings
Its EADGBE, no wonder it sounds weird!

guest
You may want to rate the tab now too:
select rating
Wanna post a correction for this tab? Suggest correction