Oops, an error
Loading. Please wait.

I Can Wait Forever solo tab

version 1
version 1

Solo

Whole song

Interactive

35,756 views 3 this week
4 commentsread comments
1 2 3 4 5
x 9
add to favorites
×
Save as Personal and add changes to this tab that will be seen only by you. Learn more ›
×
You can save this tab as Personal to edit and correct it or add notes. All changes will be seen only by you. Learn more »
launch autoscroll
font size
0
reset
how to read this tab
guitar tuner
edit
Autoscroll
slow
fast
+/-
esc
set tempo
stop
Author
Difficulty
Simple Plan - I Can Wait Forever Solo

it shld be almost 100% correct i slow the song down to listen to every
note so i think its shld be ok...if any part is wrong or off or doesnt sound right pls 
me! thnx :)


standard tuning


Solo: G - D/F# - Em - - C - G - D      x2


e|-----------------------------------------------------------------|
B|--11b13-11p9h11--11b13-9h11p9~-----------------------------------|
G|-----------------------------------------------------------------|
D|-----------------------------------------------------------------|
A|-----------------------------------------------------------------|
E|-----------------------------------------------------------------|

e|-----------------------------------------------------------------|
B|-----------------------------------------------------------------|
G|----------10-13s12-12s10-10s8-8----------------------------------|
D|--8s10-13----------------------10-11s10-10s8-8-10p8-6-888/10\8---|
A|-------------------------------------------------------66/8-\6---|
E|-----------------------------------------------------------------|

e|-----------------------------------------------------------------|
B|---------------11b13-11p9h11--11b13-9h11-------------------------|
G|----------------------------------------10~--8-10--10810---------|
D|--8b10-6s8-6-----------------------------------------------------|
A|-----------------------------------------------------------------|
E|-----------------------------------------------------------------|

e|-------11-9-9s8-8s6-6------------15--15--16--16--18~--18----15\--|
B|-----9----------------9-9~---9s16--16--16--16--16--------16------|
G|--10-------------------------------------------------------------|
D|-----------------------------------------------------------------|
A|-----------------------------------------------------------------|
E|-----------------------------------------------------------------|

            
            
Suggest correction
Creating personal tab
Creating personal tab
You can edit any tab online and save it as your Personal.

You can edit, replace or remove any tab part or add personal notes – all changes will be seen only by you.

Personal tabs can be accessed anytime from any device, even offline.
Learn more »
comments
print report bad tab
4 comments total. Showing first comments.
0 reply
Hybrid-Soldier+ 10 Jun 24, 2008 11:40 PM

Yea this is pretty accurate.It's working for me.
Good Job!

0 reply
AndrEwhO 1,058 Jun 25, 2008 01:44 AM

thanks =)

0 reply
RockStarTech 94 Dec 17, 2009 09:39 PM

I play the last bit as:

e---------13s11s9-9s8-8s6-6~---15--15--16--16--18~--16-15\-|
B|---9-12--------------------16--16--16--16--16------------|
G|-10------------------------------------------------------|
D|---------------------------------------------------------|
A|---------------------------------------------------------|
E|---------------------------------------------------------|

guest
You may want to rate the tab now too:
select rating
Wanna post a correction for this tab? Suggest correction