Oops, an error
Loading. Please wait.

Take My Hand tab

version 2
version 2

Whole song

Interactive

10,760 views 1 this week
3 commentsread comments
1 2 3 4 5
x 3
add to favorites
×
Save as Personal and add changes to this tab that will be seen only by you. Learn more ›
×
You can save this tab as Personal to edit and correct it or add notes. All changes will be seen only by you. Learn more »
launch autoscroll
font size
0
reset
how to read this tab
guitar tuner
edit
Autoscroll
slow
fast
+/-
esc
set tempo
stop
Author
----------------------------------------------------------------------------
                             Take My Hand - Simple Plan
----------------------------------------------------------------------------
Tabbed by:Mr. K
Email:insomniac1039@yahoo.com
This is mostly rite. The bridge im not too sure about tho. Email me if theres something 
and ill fix it. Or if i missed something.

Tuning:Standard

Intro: Guitar 1


e|---------------------------------------------------------------------------|
B|---------------------------------------------------------(3rd time)-6~-----|
G|---------------------------------------------------------------------------|
D|-------------------------6-------------------------------------------------|
A|-4-4---4-7-4---4-4-4---4---4---4-4-4--4-7-4---4-6-6-4-6-7-6-4-6------------|
E|-----7-------7-------7-------7-------7------7------------------------------|x3

Guitar 2
e|---------------------------------------------------------------------------|
B|---------------------------------------------------------------------------|
G|-6--------------------4---------------(2nd time)6--------------------------|
D|-6-(x8)-7------2------4-(x8)--------------------6--------------------------|
A|-4------7-(x8)-2-(x8)-2-------------------------4--------------------------|
E|--------5------0-----------------------------------------------------------|x2

Verse: Bass

Pre Chorus:

Guitar 1
e|---------------------------------------------------------------------------|
B|---------------------------------------------------------------------------|
G|-6-6-6-------8-8-8--------9-9-9--------------------------------------------|
D|-------(x4)--------(x4)---------(x8)---------------------------------------|
A|-4-4-4-------6-6-6--------7-7-7--------------------------------------------|
E|---------------------------------------------------------------------------|x2
pm x x         x x          x x

Chorus:

Guitar 1 and 2
e|---------------------------------------------------------------------------|
B|---------------------------------------------------------------------------|
G|-6--------------------4----------------------------------------------------|
D|-6-(x8)-7------2------4-(x8)-----------------------------------------------|
A|-4------7-(x8)-2-(x8)-2----------------------------------------------------|
E|--------5------0-----------------------------------------------------------|x2

e|---------------------------------------------------------------------------|
B|---------------------------------------------------------------------------|
G|-6--------------9----------------------------------------------------------|
D|-6-(x8)-7-------9-(x8)-9---------------------------------------------------|
A|-4------7-(x8)--7------9-(x8)----------------------------------------------|
E|--------5--------------7---------------------------------------------------|x2

e|---------------------------------------------------------------------------|
B|---------------------------------------------------------------------------|
G|-6-------------------------------------------------------------------------|
D|-6-(x8)-7------6-----------------------------------------------------------|
A|-4------7-(x8)-6-(x8)------------------------------------------------------|
E|--------5------4-----------------------------------------------------------|x2

Intro: Guitar 1

e|---------------------------------------------------------------------------|
B|---------------------------------------------------------------------------|
G|---------------------------------------------------------------------------|
D|-------------------------6-------------------------------------------------|
A|-4-4---4-7-4---4-4-4---4---4---4-4-4--4-7-4---4-6-6-4-6-7-6-4-6------------|
E|-----7-------7-------7-------7-------7------7------------------------------|x3

Guitar 2
e|--------------------------------------------------------------------------|
B|--------------------------------------------------------------------------|
G|-6--------------------4---------------------------------------------------|
D|-6-(x8)-7------2------4-(x8)----------------------------------------------|
A|-4------7-(x8)-2-(x8)-2---------------------------------------------------|
E|--------5------0----------------------------------------------------------|

Guitar 2
e|--------------------------------------------------------------------------|
B|--------------------------------------------------------------------------|
G|-6------------------------------------------------------------------------|
D|-6-(x8)-7------2----------------------------------------------------------|
A|-4------7-(x8)-2-(x8)-----------------------------------------------------|
E|--------5------0----------------------------------------------------------|

Verse:

Guitar 1
e|--------------------------------------------------------------------------|
B|--------------------------------------------------------------------------|
G|-9------------------------------------------------------------------------|
D|---(x5)-------------------------------------------------------------------|
A|-7------------------------------------------------------------------------|
E|--------------------------------------------------------------------------|

Pre Chorus:

Guitar 1
e|---------------------------------------------------------------------------|
B|---------------------------------------------------------------------------|
G|-6-6-6-------8-8-8--------9-9-9--------------------------------------------|
D|-------(x4)--------(x4)---------(x8)---------------------------------------|
A|-4-4-4-------6-6-6--------7-7-7--------------------------------------------|
E|---------------------------------------------------------------------------|x2
pm x x         x x          x x

Chorus:

Guitar 1 and 2
e|---------------------------------------------------------------------------|
B|---------------------------------------------------------------------------|
G|-6--------------------4----------------------------------------------------|
D|-6-(x8)-7------2------4-(x8)-----------------------------------------------|
A|-4------7-(x8)-2-(x8)-2----------------------------------------------------|
E|--------5------0-----------------------------------------------------------|x2

e|--------------------------------------------------------------------------|
B|--------------------------------------------------------------------------|
G|-6--------------9---------------------------------------------------------|
D|-6-(x8)-7-------9-(x8)-9--------------------------------------------------|
A|-4------7-(x8)--7------9-(x8)---------------------------------------------|
E|--------5--------------7--------------------------------------------------|

e|--------------------------------------------------------------------------|
B|--------------------------------------------------------------------------|
G|-6-----------------------6------------------------------------------------|
D|-6-(x8)-7------6---------6------------------------------------------------|
A|-4------7-(x8)-6-(x8)----4------------------------------------------------|
E|--------5------4----------------------------------------------------------|

Bridge:

Guitar 1
e|---------------------------------------------------------------------------|
B|--9---------9--------------------------------------------------------------|
G|---8---8-9---8-------------------------------------------------------------|
D|-----7---------7-----------------------------------------------------------|
A|---------------------------------------------------------------------------|
E|---------------------------------------------------------------------------|x4

Guitar 2
e|---------------------------------------------------------------------------|
B|---------------------------------------------------------------------------|
G|---------------------------------------------------------------------------|
D|---------2-----------------------------------------------------------------|
A|-4-4-2-4---4-2-4-----------------------------------------------------------|
E|---------------------------------------------------------------------------|x4
pm x x   x   x x

Guitar 1 and 2
e|--------------------------------------------------------------------------|
B|--------------------------------------------------------------------------|
G|-6------------------------------------------------------------------------|
D|-6-(x16)------------------------------------------------------------------|
A|-4------------------------------------------------------------------------|
E|--------------------------------------------------------------------------|

Solo:

Guitar 1
e|--------------------------------------------------------------------------|
B|------------------------7-------------------------------------------------|
G|-6-6---6-7-6--6-6-6---6---6---6-6-6--6-7-6---6-8-8-6-8-9-8-6-6------------|
D|-----7-------7------7-------7-------7------7------------------------------|
A|--------------------------------------------------------------------------|
E|--------------------------------------------------------------------------|

e|--------------------------------------------------------------------------|
B|------------------------7----------9------------------14------------------|
G|-6-6---6-7-6--6-6-6---6---6---6----11b13-(x5)-9b11p9--16b18-(x10)---------|
D|-----7-------7------7-------7---------------------------------------------|
A|--------------------------------------------------------------------------|
E|--------------------------------------------------------------------------|

Guitar 2
e|---------------------------------------------------------------------------|
B|---------------------------------------------------------------------------|
G|---------------------------------------------------------------------------|
D|-7-------9-------11--------------------------------------------------------|
A|-7-(x8)--9-(x8)--11-(16)---------------------------------------------------|
E|-5-------7-------9---------------------------------------------------------|x2

After Solo: Piano

Guitar 1 and 2
e|--------------------------------------------------------------------------|
B|--------------------------------------------------------------------------|
G|-6--------------9---------------------------------------------------------|
D|-6-(x4)-7-------9-(x4)-9--------------------------------------------------|
A|-4------7-(x4)--7------9-(x4)---------------------------------------------|
E|--------5--------------7--------------------------------------------------|

e|--------------------------------------------------------------------------|
B|--------------------------------------------------------------------------|
G|-6------------------------------------------------------------------------|
D|-6-(x3)-7-------6---------------------------------------------------------|
A|-4------7-(x4)--6-(x8)----------------------------------------------------|
E|--------5-------4---------------------------------------------------------|

Chorus:

Guitar 1 and 2
e|---------------------------------------------------------------------------|
B|---------------------------------------------------------------------------|
G|-6--------------------4----------------------------------------------------|
D|-6-(x8)-7------2------4-(x8)-----------------------------------------------|
A|-4------7-(x8)-2-(x8)-2----------------------------------------------------|
E|--------5------0-----------------------------------------------------------|x2

e|--------------------------------------------------------------------------|
B|--------------------------------------------------------------------------|
G|-6--------------9---------------------------------------------------------|
D|-6-(x8)-7-------9-(x8)-9--------------------------------------------------|
A|-4------7-(x8)--7------9-(x8)---------------------------------------------|
E|--------5--------------7--------------------------------------------------|

e|--------------------------------------------------------------------------|
B|--------------------------------------------------------------------------|
G|-6--------------------------6---------------------------------------------|
D|-6-(x8)-7------6------------6-(x2)----------------------------------------|
A|-4------7-(x8)-6-(x24)------4---------------------------------------------|
E|--------5------4----------------------------------------------------------|

Guitar 2
e|--------------------------------------------------------------------------|
B|--------------------------------------------------------------------------|
G|--------------------------------------------------------------------------|
D|--------------------------------------------------------------------------|
A|-6-6-4-6-7-6-4-6----------------------------------------------------------|
E|--------------------------------------------------------------------------|


| /   Slide up
| \   Slide down
| h   Hammer-on
| p   Pull-off
| ~   Vibrato
| +   Harmonic
| x   Palm Mute note
============================================================================

            
            
Suggest correction
Creating personal tab
Creating personal tab
You can edit any tab online and save it as your Personal.

You can edit, replace or remove any tab part or add personal notes – all changes will be seen only by you.

Personal tabs can be accessed anytime from any device, even offline.
Learn more »
Give kudos to tab author, rate the tab!
1 2 3 4 5
comments
print report bad tab
3 comments total.
+1 reply
sp4l 10 Aug 31, 2008 03:18 AM

Nice tab but i prefer the intro from the other version

Anyways good job :D

0 reply
SimonBurrows 10 Jun 20, 2013 03:11 AM

Very Good. :D

0 reply
BassTendency013 42 Feb 15, 2016 11:33 PM

Nice job! Bridge might be off but I think I'm playing it wrong anyway. Prefer this intro as well!

guest
You may want to rate the tab now too:
select rating
Wanna post a correction for this tab? Suggest correction