Oops, an error
Loading. Please wait.
We have an official Untitled tab made by UG professional guitarists. Check out the tab »
×
59,334 views 6 this week
14 commentsread comments
1 2 3 4 5
x 35
add to favorites
×
Save as Personal and add changes to this tab that will be seen only by you. Learn more ›
×
You can save this tab as Personal to edit and correct it or add notes. All changes will be seen only by you. Learn more »
launch autoscroll
font size
0
reset
how to read this tab
guitar tuner
edit
Autoscroll
slow
fast
+/-
esc
set tempo
stop
Author
[Guitar 1]
(Piano parts tabbed for guitar)

[Intro]
    G
Eb|------------------|
Bb|-------------0----|
Gb|-----0---2--------|
Db|---0---0---0---0--| x4
Ab|------------------|
Eb|-3----------------|

[Verse 1]                                   
Eb|-----0---2---0----------0---2---3---------------------------|
Bb|---0---0---0----------0---0---0------------------0----------|
Gb|-----------------------------------------0---2--------------|
Db|-2--------------------------------0----0---0---0---0--------|
Ab|----------------2-------------------------------------------|
Eb|--------------------0----------------3----------------------|
   
Eb|------------------------0---2---3----------0--2---3---------|
Bb|-------------0--------0---0---0----------0--0---0-----------|
Gb|-----0---2--------------------------------------------------|
Db|---0---0---0---0----2--------------------------------0------|
Ab|-----------------------------------2------------------------|
Eb|-3-------------------------------------0--------------------|
   
Eb|----------------------5--3--2--------0---2---3--------2---3-----|
Bb|-------------0--------3--3--3----------1-------1----------------|
Gb|-----0---2------------2--2--2------0-------0--------2---2-------|
Db|---0---0---0----0---0-----------------------------0-------------|
Ab|---------------------------------3------------------------------|
Eb|-3--------------------------------------------------------------|
   
Eb|-------------------------------------------------0---2---3------|
Bb|---------------------0------------------0----------1-------1----|
Gb|----2--------0---2-------------0---2-----------0-------0--------|
Db|--0---0----2---2---2---2-----0---0---0----0---------------------|
Ab|---------------------------------------------3------------------|
Eb|---------0-----------------3------------------------------------|

Eb|-----2---3---------|
Bb|-------------------|
Gb|---2---2-----2-----|
Db|-0---------0-------|
Ab|-------------------|
Eb|-------------------|

[Chorus]
Eb|-3-------2------------------------------0---2---3---------------|
Bb|-3-------3----------------------0------0--0---0-----------------|
Gb|-2-------2--------------0---2-----------------------------------|
Db|-0-0-0-0-0-0-0-0-0----0---0---0---0----------------0------------|
Ab|----------------------------------------------------------------|
Eb|--------------------3----------------0--------------------------|

Eb|-----0---0---0--------7---5---------------------------0---2---3---|
Bb|---1---1---1---1--------------8---------------0-----0---0---0-----|
Gb|--------------------7-----------------0---2-----------------------|
Db|------------------0-----0---0---0---0---0---0---0-----------------|
Ab|-3--------------------------------------------------------------0-|
Eb|-----------------------------------3---------------0--------------|

Eb|-----0---2---3--------7---5--------|-------------------|
Bb|-------1-------1--------------8----|-------------0-----|
Gb|---0-------0--------7--------------|-----0---2---------|
Db|------------------0-----0---0---0--|---0---0---0---0---| x2
Ab|-3---------------------------------|-------------------|
Eb|-----------------------------------|-3-----------------|

[Verse 2]
Eb|-----0---2---0----------0---2---3---------------------------|
Bb|---0---0---0----------0---0---0------------------0----------|
Gb|-----------------------------------------0---2--------------|
Db|-2--------------------------------0----0---0---0---0--------|
Ab|----------------2-------------------------------------------|
Eb|--------------------0----------------3----------------------|

Eb|------------------------0---2---3----------0--2---3---------|
Bb|-------------0--------0---0---0----------0--0---0-----------|
Gb|-----0---2--------------------------------------------------|
Db|---0---0---0---0----2--------------------------------0------|
Ab|-----------------------------------2------------------------|
Eb|-3-------------------------------------0--------------------|

Eb|----------------------5--3--2-------------------------------|
Bb|-------------0--------3--3--3----------------0--------------|
Gb|-----0---2------------2--2--2-------0---2-------------------|
Db|---0---0---0----0---0-------------2---2---2----2------------|
Ab|------------------------------------------------------------|
Eb|-3------------------------------0---------------------------|

Eb|-----------------------0---2---0------0---2---3------2---3---5---|
Bb|-------------0---------------------------------------------------|
Gb|-----0---2-----------0---0---0------0---0---0------2---2---2-----|
Db|---0---0---0---0---------------------------------0-------------0-|
Ab|-------------------3--------------3------------------------------|
Eb|-3---------------------------------------------------------------|

[Chorus]
Eb|-3-------2------------------------------0---2---3---------------|
Bb|-3-------3----------------------0------0--0---0-----------------|
Gb|-2-------2--------------0---2-----------------------------------|
Db|-0-0-0-0-0-0-0-0-0----0---0---0---0----------------0------------|
Ab|----------------------------------------------------------------|
Eb|--------------------3----------------0--------------------------|

Eb|-----0---0---0--------7---5---------------------------0---2---3---|
Bb|---1---1---1---1--------------8---------------0-----0---0---0-----|
Gb|--------------------7-----------------0---2-----------------------|
Db|------------------0-----0---0---0---0---0---0---0-----------------|
Ab|-3--------------------------------------------------------------0-|
Eb|-----------------------------------3---------------0--------------|

Eb|-----0---2---3--------7---5--------|-------------------|
Bb|-------1-------1--------------8----|-------------0-----|
Gb|---0-------0--------7--------------|-----0---2---------|
Db|------------------0-----0---0---0--|---0---0---0---0---| x2
Ab|-3---------------------------------|-------------------|
Eb|-----------------------------------|-3-----------------|

[Solo]
Eb|---------------------7---5----------------------------------------|
Bb|----0------------------------8---------0-------------0---1----0---|
Gb|---------2---0-----7-----------------------2--0------0---2----0---|
Db|--2---2---2---2---0----0---0---0-----2---2--2--2---0---0---0----0-|
Ab|-3----------------------------------------------------------------|
Eb|-----------------------------------0-------------3----------------|

Eb|---------------------------7----5---------7--5------------------|
Bb|-----0------------------------------------7--7------------------|
Gb|---------2-----0--------7---------7-------7--7------------------|
Db|---2---2---2------2---0-------0---------------------------------|
Ab|-3--------------------------------------------------------------|
Eb|----------------------------------------------------------------|

[Interlude]
Eb|-----0---2---3-----|
Bb|---0---0---0---0---|
Gb|-------------------|
Db|-------------------| x4
Ab|-------------------|
Eb|-0-----------------|

[Chorus]
Eb|-3-------2------------------------------0---2---3---------------|
Bb|-3-------3----------------------0------0--0---0-----------------|
Gb|-2-------2--------------0---2-----------------------------------|
Db|-0-0-0-0-0-0-0-0-0----0---0---0---0----------------0------------|
Ab|----------------------------------------------------------------|
Eb|--------------------3----------------0--------------------------|

Eb|-----0---0---0--------7---5---------------------------0---2---3---|
Bb|---1---1---1---1--------------8---------------0-----0---0---0-----|
Gb|--------------------7-----------------0---2-----------------------|
Db|------------------0-----0---0---0---0---0---0---0-----------------|
Ab|-3--------------------------------------------------------------0-|
Eb|-----------------------------------3---------------0--------------|

Eb|-----0---2---3--------7---5--------|-------------------|
Bb|-------1-------1--------------8----|-------------0-----|
Gb|---0-------0--------7--------------|-----0---2---------|
Db|------------------0-----0---0---0--|---0---0---0---0---| x2
Ab|-3---------------------------------|-------------------|
Eb|-----------------------------------|-3-----------------|

[Instrumental]
    G
Eb|------------------|
Bb|-------------0----|
Gb|-----0---2--------|
Db|---0---0---0---0--| x4
Ab|------------------|
Eb|-3----------------|

[Guitar 2]
(all Of This Is Optional EXCEPT for the chorus)
G
Em
I open my eyes
I try to see but I'm blinded
       G
By the white light
          Em
I can't remember how

I can't remember why
    G                   D
I'm lying here tonight
      C                    D
And I can't stand the pain
      Em              G
And I can't make it go away
     C                    D
No I can't stand the pain
Dsus           D              G
How could this happen to me?
                   Em
I made my mistakes
                    C
Got no where to run
               D6
The night goes on
                   G
As I'm fading away
                      Em
I'm sick of this life
                    C
I just wanna scream
D6
How could this happen to me?
Em
Everybody's screaming

I try to make a sound
           G
But no one hears me
    Em
I'm slipping off the edge

I'm hanging by a thread
  G                           D
I wanna start this over again
   C            D
So I try to hold onto
  Em        G
A time when nothing mattered
    C               D  
And I can't explain what happened
    Em        G                              C
And I can't erase the things that I've done
No I can't
Dsus           D              G
How could this happen to me?
                   Em
I made my mistakes
                    C
Got no where to run
               D6
The night goes on
                   G
As I'm fading away
                      Em
I'm sick of this life
                    C
I just wanna scream
D6
How could this happen to me?
(Chords for Guitar 2 are over Solo Tab for Guitar 3)
G                 Em
I made my mistakes
                    C
Got no where to run
               D6
The night goes on
                   G
As I'm fading away
                      Em
I'm sick of this life
                    C
I just wanna scream
D6
How could this happen to me?

[Guitar 3]
(Solo)
   D5               E5                    G5         C5         D5
eb|---------------------------------------------------------------|
Bb|---------------------------11b-9h11p9~-12h14p12----------------|
Gb|-----------------------7-9---------------------12~-------------|
Db|----3h5/7-5-3-5~-3h5/7----------------------------12-12/14\12~-|
Ab|-3~--------------------------------------------------12/14\12~-|
Eb|---------------------------------------------------------------|


************************************

| b  Bend
| h  Hammer-on
| p  Pull-off
| ~  Vibrato
| /  Slide up
| \  Slide down

************************************

            
            
Suggest correction
Creating personal tab
Creating personal tab
You can edit any tab online and save it as your Personal.

You can edit, replace or remove any tab part or add personal notes – all changes will be seen only by you.

Personal tabs can be accessed anytime from any device, even offline.
Learn more »
comments
print report bad tab
14 comments total. Showing first comments.
0 reply
duffmansweenie 54 Jan 15, 2006 05:55 AM

only because you say its your first tab, its good, but you're no rookie

0 reply
kaiyamie 52 May 08, 2006 12:49 PM

dude, the intro is okay, but i dont know where ur going with the rest of the song.....

0 reply
Dominic_91 31 May 10, 2006 12:12 PM

Its Good Yesh!!:D

Greedz Dominic

guest
You may want to rate the tab now too:
select rating
Wanna post a correction for this tab? Suggest correction