Oops, an error
Loading. Please wait.

Zombies Ate My Neighbors tab

version 2
version 2

Whole song

5,108 views 6 this week
2 commentsread comments
1 2 3 4 5
x 7
add to favorites
×
Save as Personal and add changes to this tab that will be seen only by you. Learn more ›
×
You can save this tab as Personal to edit and correct it or add notes. All changes will be seen only by you. Learn more »
launch autoscroll
font size
0
reset
how to read this tab
guitar tuner
edit
Autoscroll
slow
fast
+/-
esc
set tempo
stop
Author
Title:  Zombies Ate My Neighbors
Artist:  Single File
Tuning:  Standard
Notes: Sounds right to me :D

Intro

Quiet distorted guitar                       Lyrics

    1 + 2 + 3 + 4 +   1 + 2 + 3 + 4 +       
e||-----------------|-----------------|    | So call the neighbor kids,        |
B||-----------------|-----------------|    | with the trash can lids,          |
G||-6-6-6-6---------|-----------------| x2 | and the buckets on their heads.   | x1
D||-6-6-6-6-6-6-6-6-|-9-9-9-9-4-4-6-6-|    | I'm telling you, we're gonna need |
A||-4-4-4-4-6-6-6-6-|-9-9-9-9-4-4-6-6-|    | a little help tonight             |
E||---------4-4-4-4-|-7-7-7-7-2-2-4-4-|    |                                   |

Turn it up!

   1 + 2 + 3 + 4 +    1 + 2 + 3 + 4 +   1 + 2 + 3 + 4 +    1 + 2 + 3 + 4 +
e|------------------|-----------------|------------------|-----------------|
B|------------------|-----------------|------------------|-----------------|
G|-6-6-6-66---------|-----------------|-6-6-6-66---------|-----------------|
D|-6-6-6-666-6-6-66-|-9-9-9-994-4-6-6-|-6-6-6-666-6-6-66-|-9-------4-------|
A|-4-4-4-446-6-6-66-|-9-9-9-994-4-6-6-|-4-4-4-446-6-6-66-|-9-------4-------|
E|---------4-4-4-44-|-7-7-7-772-2-4-4-|---------4-4-4-44-|-7-------2-------|


Verse 1                                    

   1 + 2 + 3 + 4 +   1 + 2 + 3 + 4 +
e|-----------------|-----------------|    | So hey man check this out, downtown there's rioting,  |
B|-----------------|-----------------|    | something's spreading through the crowd,try channel 9 |
G|-------6---------|-----------------| x4 | I'm pretty sure they're heading straight for          |
D|-------6-------6-|-------9-------4-|    | this part of town. I can't be certain,                |
A|-------4-------6-|-------9-------4-|    | but I swear i hear them just outside
E|---------------4-|-------7-------2-|    | there's no way that this is real.


"So count me in"                         end on a WHAU 

   1 + 2 + 3 + 4 +    1 + 2 + 3 + 4 +        1 2 3 4
e|------------------|-----------------|    |---------| 
B|------------------|-----------------|    |---------|
G|-6-6-6-66---------|-----------------| x2 |-6-------|
D|-6-6-6-666-6-6-66-|-9-9-9-994-4-6-6-|    |-6-------|
A|-4-4-4-446-6-6-66-|-9-9-9-994-4-6-6-|    |-4-------|
E|---------4-4-4-44-|-7-7-7-772-2-4-4-|    |---------|


    1 + 2 + 3 + 4 +   1 + 2 + 3 + 4 +
e||-----------------|-----------------|    | So grab something sharp,  |
B||-----------------|-----------------|    | Find some cover,          |
G||-6-6-6-6---------|-----------------| x2 | kill the lights,          |
D||-6-6-6-6-6-6-6-6-|-9-9-9-9-4-4-6-6-|    | nail the back door shut   |
A||-4-4-4-4-6-6-6-6-|-9-9-9-9-4-4-6-6-|    | this isn't funny any more |
E||---------4-4-4-4-|-7-7-7-7-2-2-4-4-|    | oh, no this means war     |

   1 + 2 + 3 + 4 +   1 + 2 + 3 + 4 +   1 + 2 + 3 + 4 +   1 + 2 + 3 + 4 +
e|-----------------|-----------------|-----------------|-----------------| | Don't take this the  |
B|---6---6---------|-----------------|-----------------|-----------------| | wrong way, I'd much  |
G|---6---6---2---2-|---3---3---5---5-|-6-6-6-6---------|-----------------| | rather choke and die |
D|---6---6---3---3-|---4---4---6---6-|-6-6-6-6-6-6-6-6-|-9-9-9-9---------| | than sit alone and   |
A|---4---4---3---3-|---4---4---6---6-|-4-4-4-4-6-6-6-6-|-9-9-9-9---------| | fall without a fight |
E|-----------1---1-|---2---2---4---4-|---------4-4-4-4-|-7-7-7-7---------| |                      |

Chorus

    1 + 2 + 3 + 4 +   1 + 2 + 3 + 4 +       
e||-----------------|-----------------|    | So call the neighbor kids,        |
B||-----------------|-----------------|    | with the trash can lids,          |
G||-6-6-6-6---------|-----------------| x2 | and the buckets on their heads.   | x2
D||-6-6-6-6-6-6-6-6-|-9-9-9-9-4-4-6-6-|    | I'm telling you, we're gonna need |
A||-4-4-4-4-6-6-6-6-|-9-9-9-9-4-4-6-6-|    | a little help tonight             |
E||---------4-4-4-4-|-7-7-7-7-2-2-4-4-|    |                                   |

I know I didn't finish it, i was trying to do it by ear and this is what I got

            
            
Suggest correction
Creating personal tab
Creating personal tab
You can edit any tab online and save it as your Personal.

You can edit, replace or remove any tab part or add personal notes – all changes will be seen only by you.

Personal tabs can be accessed anytime from any device, even offline.
Learn more »
comments
print report bad tab
2 comments total.
0 reply
foster.getagrip 143 Jun 24, 2009 03:12 PM

I would have liked it finished. Other than that it's perfect. Haha I just checked, I'm rating and commenting on this on the first day ot came out!

0 reply
Profesorrizo 10 Apr 20, 2010 12:23 AM

Definetly the best tab for this song :D

guest
You may want to rate the tab now too:
select rating
Wanna post a correction for this tab? Suggest correction